  0
SECTION
  2
HEADER
  9
$ACADVER
  1
AC1009
  9
$INSBASE
 10
0.0
 20
0.0
 30
0.0
  9
$EXTMIN
 10
3186.045758699935
 20
1806.7654813430149
 30
0.0
  9
$EXTMAX
 10
3219.045758699936
 20
1862.668996502905
 30
0.0
  9
$LIMMIN
 10
0.0
 20
0.0
  9
$LIMMAX
 10
420.0
 20
297.0
  9
$ORTHOMODE
 70
     0
  9
$REGENMODE
 70
     1
  9
$FILLMODE
 70
     1
  9
$QTEXTMODE
 70
     0
  9
$MIRRTEXT
 70
     0
  9
$DRAGMODE
 70
     2
  9
$LTSCALE
 40
1.0
  9
$OSMODE
 70
   679
  9
$ATTMODE
 70
     1
  9
$TEXTSIZE
 40
2.5
  9
$TRACEWID
 40
1.0
  9
$TEXTSTYLE
  7
STANDARD
  9
$CLAYER
  8
0
  9
$CELTYPE
  6
BYLAYER
  9
$CECOLOR
 62
   256
  9
$DIMSCALE
 40
1.0
  9
$DIMASZ
 40
2.5
  9
$DIMEXO
 40
0.625
  9
$DIMDLI
 40
3.75
  9
$DIMRND
 40
0.0
  9
$DIMDLE
 40
0.0
  9
$DIMEXE
 40
1.25
  9
$DIMTP
 40
0.0
  9
$DIMTM
 40
0.0
  9
$DIMTXT
 40
2.5
  9
$DIMCEN
 40
2.5
  9
$DIMTSZ
 40
0.0
  9
$DIMTOL
 70
     0
  9
$DIMLIM
 70
     0
  9
$DIMTIH
 70
     0
  9
$DIMTOH
 70
     0
  9
$DIMSE1
 70
     0
  9
$DIMSE2
 70
     0
  9
$DIMTAD
 70
     1
  9
$DIMZIN
 70
     8
  9
$DIMBLK
  1

  9
$DIMASO
 70
     1
  9
$DIMSHO
 70
     1
  9
$DIMPOST
  1

  9
$DIMAPOST
  1

  9
$DIMALT
 70
     0
  9
$DIMALTD
 70
     3
  9
$DIMALTF
 40
0.03937007874016
  9
$DIMLFAC
 40
1.0
  9
$DIMTOFL
 70
     1
  9
$DIMTVP
 40
0.0
  9
$DIMTIX
 70
     0
  9
$DIMSOXD
 70
     0
  9
$DIMSAH
 70
     0
  9
$DIMBLK1
  1

  9
$DIMBLK2
  1

  9
$DIMSTYLE
  2
ISO-25
  9
$DIMCLRD
 70
     0
  9
$DIMCLRE
 70
     0
  9
$DIMCLRT
 70
     0
  9
$DIMTFAC
 40
1.0
  9
$DIMGAP
 40
0.625
  9
$LUNITS
 70
     2
  9
$LUPREC
 70
     4
  9
$SKETCHINC
 40
1.0
  9
$FILLETRAD
 40
0.0
  9
$AUNITS
 70
     0
  9
$AUPREC
 70
     0
  9
$MENU
  1
.
  9
$ELEVATION
 40
0.0
  9
$PELEVATION
 40
0.0
  9
$THICKNESS
 40
0.0
  9
$LIMCHECK
 70
     0
  9
$BLIPMODE
 70
     0
  9
$CHAMFERA
 40
0.0
  9
$CHAMFERB
 40
0.0
  9
$SKPOLY
 70
     0
  9
$TDCREATE
 40
2456925.6255653589
  9
$TDUPDATE
 40
2456930.3847921179
  9
$TDINDWG
 40
0.0011057176
  9
$TDUSRTIMER
 40
0.0011057176
  9
$USRTIMER
 70
     1
  9
$ANGBASE
 50
0.0
  9
$ANGDIR
 70
     0
  9
$PDMODE
 70
     0
  9
$PDSIZE
 40
0.0
  9
$PLINEWID
 40
0.0
  9
$COORDS
 70
     2
  9
$SPLFRAME
 70
     0
  9
$SPLINETYPE
 70
     6
  9
$SPLINESEGS
 70
     8
  9
$ATTDIA
 70
     0
  9
$ATTREQ
 70
     1
  9
$HANDLING
 70
     1
  9
$HANDSEED
  5
C9F
  9
$SURFTAB1
 70
     6
  9
$SURFTAB2
 70
     6
  9
$SURFTYPE
 70
     6
  9
$SURFU
 70
     6
  9
$SURFV
 70
     6
  9
$UCSNAME
  2

  9
$UCSORG
 10
0.0
 20
0.0
 30
0.0
  9
$UCSXDIR
 10
1.0
 20
0.0
 30
0.0
  9
$UCSYDIR
 10
0.0
 20
1.0
 30
0.0
  9
$PUCSNAME
  2

  9
$PUCSORG
 10
0.0
 20
0.0
 30
0.0
  9
$PUCSXDIR
 10
1.0
 20
0.0
 30
0.0
  9
$PUCSYDIR
 10
0.0
 20
1.0
 30
0.0
  9
$USERI1
 70
     0
  9
$USERI2
 70
     0
  9
$USERI3
 70
     0
  9
$USERI4
 70
     0
  9
$USERI5
 70
     0
  9
$USERR1
 40
0.0
  9
$USERR2
 40
0.0
  9
$USERR3
 40
0.0
  9
$USERR4
 40
0.0
  9
$USERR5
 40
0.0
  9
$WORLDVIEW
 70
     1
  9
$SHADEDGE
 70
     3
  9
$SHADEDIF
 70
    70
  9
$TILEMODE
 70
     1
  9
$MAXACTVP
 70
    64
  9
$PLIMCHECK
 70
     0
  9
$PEXTMIN
 10
0.0
 20
0.0
 30
0.0
  9
$PEXTMAX
 10
0.0
 20
0.0
 30
0.0
  9
$PLIMMIN
 10
0.0
 20
0.0
  9
$PLIMMAX
 10
12.0
 20
9.0
  9
$UNITMODE
 70
     0
  9
$VISRETAIN
 70
     1
  9
$PLINEGEN
 70
     0
  9
$PSLTSCALE
 70
     1
  0
ENDSEC
  0
SECTION
  2
TABLES
  0
TABLE
  2
VPORT
 70
     1
  0
VPORT
  2
*ACTIVE
 70
     0
 10
0.0
 20
0.0
 11
1.0
 21
1.0
 12
3210.089656483533
 22
1842.3028440177829
 13
0.0
 23
0.0
 14
10.0
 24
10.0
 15
10.0
 25
10.0
 16
0.0
 26
0.0
 36
1.0
 17
0.0
 27
0.0
 37
0.0
 40
115.2041861471662
 41
1.9598108747044909
 42
50.0
 43
0.0
 44
0.0
 50
0.0
 51
0.0
 71
     0
 72
  1000
 73
     1
 74
     3
 75
     0
 76
     0
 77
     0
 78
     0
  0
ENDTAB
  0
TABLE
  2
LTYPE
 70
     1
  0
LTYPE
  2
CONTINUOUS
 70
     0
  3
Solid line
 72
    65
 73
     0
 40
0.0
  0
ENDTAB
  0
TABLE
  2
LAYER
 70
     1
  0
LAYER
  2
0
 70
     0
 62
     7
  6
CONTINUOUS
  0
ENDTAB
  0
TABLE
  2
STYLE
 70
     2
  0
STYLE
  2
STANDARD
 70
     0
 40
0.0
 41
1.0
 50
0.0
 71
     0
 42
2.5
  3
txt
  4

  0
STYLE
  2
ANNOTATIVA
 70
     0
 40
0.0
 41
1.0
 50
0.0
 71
     0
 42
2.5
  3
txt
  4

  0
ENDTAB
  0
TABLE
  2
VIEW
 70
     0
  0
ENDTAB
  0
TABLE
  2
UCS
 70
     0
  0
ENDTAB
  0
TABLE
  2
APPID
 70
    13
  0
APPID
  2
ACAD
 70
     0
  0
APPID
  2
ACAD_PSEXT
 70
     0
  0
APPID
  2
ACADANNOPO
 70
     0
  0
APPID
  2
ACADANNOTATIVE
 70
     0
  0
APPID
  2
ACAD_DSTYLE_DIMJAG
 70
     0
  0
APPID
  2
ACAD_DSTYLE_DIMTALN
 70
     0
  0
APPID
  2
ACAD_MLEADERVER
 70
     0
  0
APPID
  2
ACAD_DSTYLE_DIMJOGGED_JOGA
 70
     0
  0
APPID
  2
ACAD_DSTYLE_DIMEXT_ENABLED
 70
     0
  0
APPID
  2
ACAD_DSTYLE_DIMEXT_LENGTH
 70
     0
  0
APPID
  2
ACAD_DSTYLE_DIM_LINETYPE
 70
     0
  0
APPID
  2
ACAD_DSTYLE_DIM_EXT1_LINETYPE
 70
     0
  0
APPID
  2
ACAD_DSTYLE_DIM_EXT2_LINETYPE
 70
     0
  0
ENDTAB
  0
TABLE
  2
DIMSTYLE
 70
     4
  0
DIMSTYLE
  2
STANDARD
 70
     0
  3

  4

  5

  6

  7

 40
1.0
 41
0.18
 42
0.0625
 43
0.38
 44
0.18
 45
0.0
 46
0.0
 47
0.0
 48
0.0
140
0.18
141
0.09
142
0.0
143
25.399999999999999
144
1.0
145
0.0
146
1.0
147
0.09
 71
     0
 72
     0
 73
     1
 74
     1
 75
     0
 76
     0
 77
     0
 78
     0
170
     0
171
     2
172
     0
173
     0
174
     0
175
     0
176
     0
177
     0
178
     0
  0
DIMSTYLE
  2
ANNOTATIVA
 70
     0
  3

  4

  5

  6

  7

 40
0.0
 41
2.5
 42
0.625
 43
3.75
 44
1.25
 45
0.0
 46
0.0
 47
0.0
 48
0.0
140
2.5
141
2.5
142
0.0
143
0.03937007874016
144
1.0
145
0.0
146
1.0
147
0.625
 71
     0
 72
     0
 73
     0
 74
     0
 75
     0
 76
     0
 77
     1
 78
     8
170
     0
171
     3
172
     1
173
     0
174
     0
175
     0
176
     0
177
     0
178
     0
  0
DIMSTYLE
  2
ISO-25
 70
     0
  3

  4

  5

  6

  7

 40
1.0
 41
2.5
 42
0.625
 43
3.75
 44
1.25
 45
0.0
 46
0.0
 47
0.0
 48
0.0
140
2.5
141
2.5
142
0.0
143
0.03937007874016
144
1.0
145
0.0
146
1.0
147
0.625
 71
     0
 72
     0
 73
     0
 74
     0
 75
     0
 76
     0
 77
     1
 78
     8
170
     0
171
     3
172
     1
173
     0
174
     0
175
     0
176
     0
177
     0
178
     0
  0
DIMSTYLE
  2
DAVIDE
 70
     0
  3

  4

  5

  6

  7

 40
1.0
 41
5.0
 42
10.0
 43
5.0
 44
10.0
 45
0.0
 46
0.0
 47
0.0
 48
0.0
140
6.0
141
10.0
142
0.0
143
0.03937007874016
144
1.0
145
0.0
146
1.0
147
1.5
 71
     0
 72
     0
 73
     1
 74
     1
 75
     0
 76
     0
 77
     0
 78
     8
170
     0
171
     3
172
     1
173
     0
174
     0
175
     0
176
   256
177
   256
178
   256
  0
ENDTAB
  0
ENDSEC
  0
SECTION
  2
BLOCKS
  0
BLOCK
  8
0
  2
$MODEL_SPACE
 70
     0
 10
0.0
 20
0.0
 30
0.0
  3
$MODEL_SPACE
  1

  0
ENDBLK
  5
21
  8
0
  0
BLOCK
 67
     1
  8
0
  2
$PAPER_SPACE
 70
     0
 10
0.0
 20
0.0
 30
0.0
  3
$PAPER_SPACE
  1

  0
ENDBLK
  5
D5
 67
     1
  8
0
  0
ENDSEC
  0
SECTION
  2
ENTITIES
  0
POLYLINE
  5
2B7
  8
0
 66
     1
 10
0.0
 20
0.0
 30
0.0
  0
VERTEX
  5
393
  8
0
 10
3202.6460592478661
 20
1806.7654891704251
 30
0.0
  0
VERTEX
  5
394
  8
0
 10
3203.1377448040448
 20
1806.7708057494251
 30
0.0
  0
VERTEX
  5
395
  8
0
 10
3203.760512353896
 20
1806.7925773982249
 30
0.0
  0
VERTEX
  5
396
  8
0
 10
3204.3751581932761
 20
1806.830723725805
 30
0.0
  0
VERTEX
  5
397
  8
0
 10
3204.977517782886
 20
1806.884604132985
 30
0.0
  0
VERTEX
  5
398
  8
0
 10
3205.5680759962952
 20
1806.9540075884049
 30
0.0
  0
VERTEX
  5
399
  8
0
 10
3206.1518805004862
 20
1807.039588329465
 30
0.0
  0
VERTEX
  5
39A
  8
0
 10
3206.7278738855762
 20
1807.1415217362351
 30
0.0
  0
VERTEX
  5
39B
  8
0
 10
3207.2930528071861
 20
1807.259698434485
 30
0.0
  0
VERTEX
  5
39C
  8
0
 10
3207.8490765638162
 20
1807.395231155125
 30
0.0
  0
VERTEX
  5
39D
  8
0
 10
3208.397048961906
 20
1807.549645449425
 30
0.0
  0
VERTEX
  5
39E
  8
0
 10
3208.9304235991358
 20
1807.7223819282949
 30
0.0
  0
VERTEX
  5
39F
  8
0
 10
3209.4404888716749
 20
1807.9113132945749
 30
0.0
  0
VERTEX
  5
3A0
  8
0
 10
3209.9265076431461
 20
1808.116756871605
 30
0.0
  0
VERTEX
  5
3A1
  8
0
 10
3210.3859399624962
 20
1808.338398458525
 30
0.0
  0
VERTEX
  5
3A2
  8
0
 10
3210.810654688456
 20
1808.572243610545
 30
0.0
  0
VERTEX
  5
3A3
  8
0
 10
3211.2000053650659
 20
1808.8169071186851
 30
0.0
  0
VERTEX
  5
3A4
  8
0
 10
3211.5558771682158
 20
1809.0728910773951
 30
0.0
  0
VERTEX
  5
3A5
  8
0
 10
3211.8765902351461
 20
1809.3385387620849
 30
0.0
  0
VERTEX
  5
3A6
  8
0
 10
3212.1621783117162
 20
1809.612969222155
 30
0.0
  0
VERTEX
  5
3A7
  8
0
 10
3212.413967394536
 20
1809.8963814101739
 30
0.0
  0
VERTEX
  5
3A8
  8
0
 10
3212.6325905073149
 20
1810.188593290135
 30
0.0
  0
VERTEX
  5
3A9
  8
0
 10
3212.8184614061861
 20
1810.489551044275
 30
0.0
  0
SEQEND
  5
3AA
  8
0
  0
LINE
  5
2B8
  8
0
 10
3202.545758699936
 20
1806.7654813430149
 30
0.0
 11
3202.6460592558051
 21
1806.7654889642449
 31
0.0
  0
LINE
  5
2B9
  8
0
 10
3215.045758699936
 20
1855.710078624905
 30
0.0
 11
3215.045758699936
 21
1845.5415203652849
 31
0.0
  0
LINE
  5
2BA
  8
0
 10
3213.209709721365
 20
1811.621948798155
 30
0.0
 11
3213.2106077462249
 21
1811.6280297870151
 31
0.0
  0
LINE
  5
2BB
  8
0
 10
3213.2097090114562
 20
1811.6219440484449
 30
0.0
 11
3213.513997100596
 21
1813.6337052077649
 31
0.0
  0
LINE
  5
2BC
  8
0
 10
3213.513997100596
 20
1813.6337052077649
 30
0.0
 11
3213.795087015566
 21
1815.451581715985
 31
0.0
  0
LINE
  5
2BD
  8
0
 10
3213.795087015566
 20
1815.451581715985
 30
0.0
 11
3213.796142630375
 21
1815.4583396377941
 31
0.0
  0
LINE
  5
2BE
  8
0
 10
3213.796142630375
 20
1815.4583396377941
 30
0.0
 11
3213.998029249276
 21
1816.720083904695
 31
0.0
  0
LINE
  5
2BF
  8
0
 10
3213.998029249276
 20
1816.720083904695
 30
0.0
 11
3214.2551959657949
 21
1818.2649203809549
 31
0.0
  0
LINE
  5
2C0
  8
0
 10
3219.045758699936
 20
1862.668996502905
 30
0.0
 11
3219.045758699936
 21
1845.5415203652849
 31
0.0
  0
LINE
  5
2C1
  8
0
 10
3214.2551959657949
 20
1818.2649203809549
 30
0.0
 11
3214.5236701094959
 21
1819.832446108795
 31
0.0
  0
LINE
  5
2C2
  8
0
 10
3214.5236701094959
 20
1819.832446108795
 30
0.0
 11
3214.9507337724658
 21
1822.2708655957049
 31
0.0
  0
LINE
  5
2C3
  8
0
 10
3214.9507337724658
 20
1822.2708655957049
 30
0.0
 11
3215.4159997804559
 21
1824.8836031758151
 31
0.0
  0
LINE
  5
2C4
  8
0
 10
3215.4159997804559
 20
1824.8836031758151
 30
0.0
 11
3216.1128538378362
 21
1828.751855468485
 31
0.0
  0
LINE
  5
2C5
  8
0
 10
3216.1128538378362
 20
1828.751855468485
 30
0.0
 11
3217.0856417014361
 21
1834.106521976325
 31
0.0
  0
LINE
  5
2C6
  8
0
 10
3217.0856417014361
 20
1834.106521976325
 30
0.0
 11
3218.915880881465
 21
1844.1203266165451
 31
0.0
  0
LINE
  5
2C7
  8
0
 10
3202.545758699936
 20
1858.4672049579051
 30
0.0
 11
3211.045758699935
 21
1858.4672049579051
 31
0.0
  0
POLYLINE
  5
2C8
  8
0
 66
     1
 10
0.0
 20
0.0
 30
0.0
  0
VERTEX
  5
3AB
  8
0
 10
3212.8184614061861
 20
1810.489551044275
 30
0.0
  0
VERTEX
  5
3AC
  8
0
 10
3212.9711109066061
 20
1810.798059294405
 30
0.0
  0
VERTEX
  5
3AD
  8
0
 10
3213.0896969508849
 20
1811.1112986313749
 30
0.0
  0
VERTEX
  5
3AE
  8
0
 10
3213.174256639405
 20
1811.4268934868451
 30
0.0
  0
VERTEX
  5
3AF
  8
0
 10
3213.2106019024159
 20
1811.627997468735
 30
0.0
  0
SEQEND
  5
3B0
  8
0
  0
LINE
  5
2C9
  8
0
 10
3202.545758699936
 20
1862.668996502905
 30
0.0
 11
3219.045758699936
 21
1862.668996502905
 31
0.0
  0
ARC
  5
2D9
  8
0
 10
3202.5452624900449
 20
1858.1060820306441
 30
0.0
 40
23.937710124460001
 50
270.0011876963797
 51
270.27011861447153
  0
ARC
  5
2DA
  8
0
 10
3211.137040636565
 20
1845.547738440295
 30
0.0
 40
7.90872050779
 50
349.60194188289762
 51
359.95495232249618
  0
ARC
  5
2DB
  8
0
 10
3209.1390928732262
 20
1845.542337210275
 30
0.0
 40
5.9066658831899987
 50
352.88517418660803
 51
359.99207644875281
  0
ARC
  5
2DC
  8
0
 10
3202.545758699936
 20
1849.168996502905
 30
0.0
 40
1.0
 50
270.0
 51
90.0
  0
POLYLINE
  8
0
  5
3CF
  66
     1
 10
0.000000
 20
0.000000
 30
0.000000
  70
     8
  0
VERTEX
  8
0
  5
3D0
 10
3215.00
 20
1844.81
 30
0.000000
  70
    32
  0
VERTEX
  8
0
  5
3D1
 10
3214.99
 20
1844.77
 30
0.000000
  70
    32
  0
VERTEX
  8
0
  5
3D2
 10
3214.99
 20
1844.72
 30
0.000000
  70
    32
  0
VERTEX
  8
0
  5
3D3
 10
3214.98
 20
1844.68
 30
0.000000
  70
    32
  0
VERTEX
  8
0
  5
3D4
 10
3214.98
 20
1844.63
 30
0.000000
  70
    32
  0
VERTEX
  8
0
  5
3D5
 10
3214.97
 20
1844.59
 30
0.000000
  70
    32
  0
VERTEX
  8
0
  5
3D6
 10
3214.96
 20
1844.54
 30
0.000000
  70
    32
  0
VERTEX
  8
0
  5
3D7
 10
3214.95
 20
1844.50
 30
0.000000
  70
    32
  0
VERTEX
  8
0
  5
3D8
 10
3214.94
 20
1844.45
 30
0.000000
  70
    32
  0
VERTEX
  8
0
  5
3D9
 10
3214.94
 20
1844.41
 30
0.000000
  70
    32
  0
VERTEX
  8
0
  5
3DA
 10
3214.93
 20
1844.36
 30
0.000000
  70
    32
  0
VERTEX
  8
0
  5
3DB
 10
3214.92
 20
1844.32
 30
0.000000
  70
    32
  0
VERTEX
  8
0
  5
3DC
 10
3214.91
 20
1844.27
 30
0.000000
  70
    32
  0
VERTEX
  8
0
  5
3DD
 10
3214.90
 20
1844.23
 30
0.000000
  70
    32
  0
VERTEX
  8
0
  5
3DE
 10
3214.89
 20
1844.18
 30
0.000000
  70
    32
  0
VERTEX
  8
0
  5
3DF
 10
3214.88
 20
1844.14
 30
0.000000
  70
    32
  0
VERTEX
  8
0
  5
3E0
 10
3214.87
 20
1844.09
 30
0.000000
  70
    32
  0
VERTEX
  8
0
  5
3E1
 10
3214.86
 20
1844.05
 30
0.000000
  70
    32
  0
VERTEX
  8
0
  5
3E2
 10
3214.84
 20
1844.01
 30
0.000000
  70
    32
  0
VERTEX
  8
0
  5
3E3
 10
3214.83
 20
1843.96
 30
0.000000
  70
    32
  0
VERTEX
  8
0
  5
3E4
 10
3214.82
 20
1843.92
 30
0.000000
  70
    32
  0
VERTEX
  8
0
  5
3E5
 10
3214.81
 20
1843.87
 30
0.000000
  70
    32
  0
VERTEX
  8
0
  5
3E6
 10
3214.80
 20
1843.83
 30
0.000000
  70
    32
  0
VERTEX
  8
0
  5
3E7
 10
3214.78
 20
1843.79
 30
0.000000
  70
    32
  0
VERTEX
  8
0
  5
3E8
 10
3214.77
 20
1843.74
 30
0.000000
  70
    32
  0
VERTEX
  8
0
  5
3E9
 10
3214.76
 20
1843.70
 30
0.000000
  70
    32
  0
VERTEX
  8
0
  5
3EA
 10
3214.74
 20
1843.66
 30
0.000000
  70
    32
  0
VERTEX
  8
0
  5
3EB
 10
3214.73
 20
1843.61
 30
0.000000
  70
    32
  0
VERTEX
  8
0
  5
3EC
 10
3214.71
 20
1843.57
 30
0.000000
  70
    32
  0
VERTEX
  8
0
  5
3ED
 10
3214.70
 20
1843.53
 30
0.000000
  70
    32
  0
VERTEX
  8
0
  5
3EE
 10
3214.68
 20
1843.48
 30
0.000000
  70
    32
  0
VERTEX
  8
0
  5
3EF
 10
3214.67
 20
1843.44
 30
0.000000
  70
    32
  0
VERTEX
  8
0
  5
3F0
 10
3214.65
 20
1843.40
 30
0.000000
  70
    32
  0
VERTEX
  8
0
  5
3F1
 10
3214.64
 20
1843.35
 30
0.000000
  70
    32
  0
VERTEX
  8
0
  5
3F2
 10
3214.62
 20
1843.31
 30
0.000000
  70
    32
  0
VERTEX
  8
0
  5
3F3
 10
3214.60
 20
1843.27
 30
0.000000
  70
    32
  0
VERTEX
  8
0
  5
3F4
 10
3214.59
 20
1843.23
 30
0.000000
  70
    32
  0
VERTEX
  8
0
  5
3F5
 10
3214.57
 20
1843.18
 30
0.000000
  70
    32
  0
VERTEX
  8
0
  5
3F6
 10
3214.55
 20
1843.14
 30
0.000000
  70
    32
  0
VERTEX
  8
0
  5
3F7
 10
3214.53
 20
1843.10
 30
0.000000
  70
    32
  0
VERTEX
  8
0
  5
3F8
 10
3214.51
 20
1843.06
 30
0.000000
  70
    32
  0
VERTEX
  8
0
  5
3F9
 10
3214.50
 20
1843.02
 30
0.000000
  70
    32
  0
VERTEX
  8
0
  5
3FA
 10
3214.48
 20
1842.97
 30
0.000000
  70
    32
  0
VERTEX
  8
0
  5
3FB
 10
3214.46
 20
1842.93
 30
0.000000
  70
    32
  0
VERTEX
  8
0
  5
3FC
 10
3214.44
 20
1842.89
 30
0.000000
  70
    32
  0
VERTEX
  8
0
  5
3FD
 10
3214.42
 20
1842.85
 30
0.000000
  70
    32
  0
VERTEX
  8
0
  5
3FE
 10
3214.40
 20
1842.81
 30
0.000000
  70
    32
  0
VERTEX
  8
0
  5
3FF
 10
3214.38
 20
1842.77
 30
0.000000
  70
    32
  0
VERTEX
  8
0
  5
400
 10
3214.36
 20
1842.73
 30
0.000000
  70
    32
  0
VERTEX
  8
0
  5
401
 10
3214.34
 20
1842.69
 30
0.000000
  70
    32
  0
VERTEX
  8
0
  5
402
 10
3214.32
 20
1842.65
 30
0.000000
  70
    32
  0
VERTEX
  8
0
  5
403
 10
3214.30
 20
1842.61
 30
0.000000
  70
    32
  0
VERTEX
  8
0
  5
404
 10
3214.28
 20
1842.57
 30
0.000000
  70
    32
  0
VERTEX
  8
0
  5
405
 10
3214.25
 20
1842.53
 30
0.000000
  70
    32
  0
VERTEX
  8
0
  5
406
 10
3214.23
 20
1842.49
 30
0.000000
  70
    32
  0
VERTEX
  8
0
  5
407
 10
3214.21
 20
1842.45
 30
0.000000
  70
    32
  0
VERTEX
  8
0
  5
408
 10
3214.19
 20
1842.41
 30
0.000000
  70
    32
  0
VERTEX
  8
0
  5
409
 10
3214.17
 20
1842.37
 30
0.000000
  70
    32
  0
VERTEX
  8
0
  5
40A
 10
3214.14
 20
1842.33
 30
0.000000
  70
    32
  0
VERTEX
  8
0
  5
40B
 10
3214.12
 20
1842.29
 30
0.000000
  70
    32
  0
VERTEX
  8
0
  5
40C
 10
3214.10
 20
1842.25
 30
0.000000
  70
    32
  0
VERTEX
  8
0
  5
40D
 10
3214.07
 20
1842.21
 30
0.000000
  70
    32
  0
VERTEX
  8
0
  5
40E
 10
3214.05
 20
1842.17
 30
0.000000
  70
    32
  0
VERTEX
  8
0
  5
40F
 10
3214.02
 20
1842.13
 30
0.000000
  70
    32
  0
VERTEX
  8
0
  5
410
 10
3214.00
 20
1842.09
 30
0.000000
  70
    32
  0
VERTEX
  8
0
  5
411
 10
3213.98
 20
1842.05
 30
0.000000
  70
    32
  0
VERTEX
  8
0
  5
412
 10
3213.95
 20
1842.02
 30
0.000000
  70
    32
  0
VERTEX
  8
0
  5
413
 10
3213.93
 20
1841.98
 30
0.000000
  70
    32
  0
VERTEX
  8
0
  5
414
 10
3213.90
 20
1841.94
 30
0.000000
  70
    32
  0
VERTEX
  8
0
  5
415
 10
3213.88
 20
1841.90
 30
0.000000
  70
    32
  0
VERTEX
  8
0
  5
416
 10
3213.85
 20
1841.86
 30
0.000000
  70
    32
  0
VERTEX
  8
0
  5
417
 10
3213.82
 20
1841.83
 30
0.000000
  70
    32
  0
VERTEX
  8
0
  5
418
 10
3213.80
 20
1841.79
 30
0.000000
  70
    32
  0
VERTEX
  8
0
  5
419
 10
3213.77
 20
1841.75
 30
0.000000
  70
    32
  0
VERTEX
  8
0
  5
41A
 10
3213.75
 20
1841.72
 30
0.000000
  70
    32
  0
VERTEX
  8
0
  5
41B
 10
3213.72
 20
1841.68
 30
0.000000
  70
    32
  0
VERTEX
  8
0
  5
41C
 10
3213.69
 20
1841.64
 30
0.000000
  70
    32
  0
VERTEX
  8
0
  5
41D
 10
3213.66
 20
1841.61
 30
0.000000
  70
    32
  0
VERTEX
  8
0
  5
41E
 10
3213.64
 20
1841.57
 30
0.000000
  70
    32
  0
VERTEX
  8
0
  5
41F
 10
3213.61
 20
1841.53
 30
0.000000
  70
    32
  0
VERTEX
  8
0
  5
420
 10
3213.58
 20
1841.50
 30
0.000000
  70
    32
  0
VERTEX
  8
0
  5
421
 10
3213.55
 20
1841.46
 30
0.000000
  70
    32
  0
VERTEX
  8
0
  5
422
 10
3213.53
 20
1841.42
 30
0.000000
  70
    32
  0
VERTEX
  8
0
  5
423
 10
3213.50
 20
1841.39
 30
0.000000
  70
    32
  0
VERTEX
  8
0
  5
424
 10
3213.47
 20
1841.35
 30
0.000000
  70
    32
  0
VERTEX
  8
0
  5
425
 10
3213.44
 20
1841.32
 30
0.000000
  70
    32
  0
VERTEX
  8
0
  5
426
 10
3213.41
 20
1841.28
 30
0.000000
  70
    32
  0
VERTEX
  8
0
  5
427
 10
3213.38
 20
1841.25
 30
0.000000
  70
    32
  0
VERTEX
  8
0
  5
428
 10
3213.35
 20
1841.21
 30
0.000000
  70
    32
  0
VERTEX
  8
0
  5
429
 10
3213.32
 20
1841.18
 30
0.000000
  70
    32
  0
VERTEX
  8
0
  5
42A
 10
3213.29
 20
1841.14
 30
0.000000
  70
    32
  0
VERTEX
  8
0
  5
42B
 10
3213.26
 20
1841.11
 30
0.000000
  70
    32
  0
VERTEX
  8
0
  5
42C
 10
3213.23
 20
1841.07
 30
0.000000
  70
    32
  0
VERTEX
  8
0
  5
42D
 10
3213.20
 20
1841.04
 30
0.000000
  70
    32
  0
VERTEX
  8
0
  5
42E
 10
3213.17
 20
1841.01
 30
0.000000
  70
    32
  0
VERTEX
  8
0
  5
42F
 10
3213.14
 20
1840.97
 30
0.000000
  70
    32
  0
VERTEX
  8
0
  5
430
 10
3213.11
 20
1840.94
 30
0.000000
  70
    32
  0
VERTEX
  8
0
  5
431
 10
3213.08
 20
1840.91
 30
0.000000
  70
    32
  0
VERTEX
  8
0
  5
432
 10
3213.05
 20
1840.87
 30
0.000000
  70
    32
  0
VERTEX
  8
0
  5
433
 10
3213.02
 20
1840.84
 30
0.000000
  70
    32
  0
VERTEX
  8
0
  5
434
 10
3212.99
 20
1840.81
 30
0.000000
  70
    32
  0
VERTEX
  8
0
  5
435
 10
3212.96
 20
1840.77
 30
0.000000
  70
    32
  0
VERTEX
  8
0
  5
436
 10
3212.92
 20
1840.74
 30
0.000000
  70
    32
  0
VERTEX
  8
0
  5
437
 10
3212.89
 20
1840.71
 30
0.000000
  70
    32
  0
VERTEX
  8
0
  5
438
 10
3212.86
 20
1840.68
 30
0.000000
  70
    32
  0
VERTEX
  8
0
  5
439
 10
3212.83
 20
1840.64
 30
0.000000
  70
    32
  0
VERTEX
  8
0
  5
43A
 10
3212.80
 20
1840.61
 30
0.000000
  70
    32
  0
VERTEX
  8
0
  5
43B
 10
3212.76
 20
1840.58
 30
0.000000
  70
    32
  0
VERTEX
  8
0
  5
43C
 10
3212.73
 20
1840.55
 30
0.000000
  70
    32
  0
VERTEX
  8
0
  5
43D
 10
3212.70
 20
1840.52
 30
0.000000
  70
    32
  0
VERTEX
  8
0
  5
43E
 10
3212.66
 20
1840.48
 30
0.000000
  70
    32
  0
VERTEX
  8
0
  5
43F
 10
3212.63
 20
1840.45
 30
0.000000
  70
    32
  0
VERTEX
  8
0
  5
440
 10
3212.60
 20
1840.42
 30
0.000000
  70
    32
  0
VERTEX
  8
0
  5
441
 10
3212.56
 20
1840.39
 30
0.000000
  70
    32
  0
VERTEX
  8
0
  5
442
 10
3212.53
 20
1840.36
 30
0.000000
  70
    32
  0
VERTEX
  8
0
  5
443
 10
3212.50
 20
1840.33
 30
0.000000
  70
    32
  0
VERTEX
  8
0
  5
444
 10
3212.46
 20
1840.30
 30
0.000000
  70
    32
  0
VERTEX
  8
0
  5
445
 10
3212.43
 20
1840.27
 30
0.000000
  70
    32
  0
VERTEX
  8
0
  5
446
 10
3212.40
 20
1840.24
 30
0.000000
  70
    32
  0
VERTEX
  8
0
  5
447
 10
3212.36
 20
1840.21
 30
0.000000
  70
    32
  0
VERTEX
  8
0
  5
448
 10
3212.33
 20
1840.18
 30
0.000000
  70
    32
  0
VERTEX
  8
0
  5
449
 10
3212.29
 20
1840.15
 30
0.000000
  70
    32
  0
VERTEX
  8
0
  5
44A
 10
3212.26
 20
1840.12
 30
0.000000
  70
    32
  0
VERTEX
  8
0
  5
44B
 10
3212.22
 20
1840.09
 30
0.000000
  70
    32
  0
VERTEX
  8
0
  5
44C
 10
3212.19
 20
1840.06
 30
0.000000
  70
    32
  0
VERTEX
  8
0
  5
44D
 10
3212.15
 20
1840.03
 30
0.000000
  70
    32
  0
VERTEX
  8
0
  5
44E
 10
3212.12
 20
1840.00
 30
0.000000
  70
    32
  0
VERTEX
  8
0
  5
44F
 10
3212.08
 20
1839.97
 30
0.000000
  70
    32
  0
VERTEX
  8
0
  5
450
 10
3212.05
 20
1839.94
 30
0.000000
  70
    32
  0
VERTEX
  8
0
  5
451
 10
3212.01
 20
1839.92
 30
0.000000
  70
    32
  0
VERTEX
  8
0
  5
452
 10
3211.98
 20
1839.89
 30
0.000000
  70
    32
  0
VERTEX
  8
0
  5
453
 10
3211.94
 20
1839.86
 30
0.000000
  70
    32
  0
VERTEX
  8
0
  5
454
 10
3211.90
 20
1839.83
 30
0.000000
  70
    32
  0
VERTEX
  8
0
  5
455
 10
3211.87
 20
1839.80
 30
0.000000
  70
    32
  0
VERTEX
  8
0
  5
456
 10
3211.83
 20
1839.77
 30
0.000000
  70
    32
  0
VERTEX
  8
0
  5
457
 10
3211.80
 20
1839.75
 30
0.000000
  70
    32
  0
VERTEX
  8
0
  5
458
 10
3211.76
 20
1839.72
 30
0.000000
  70
    32
  0
VERTEX
  8
0
  5
459
 10
3211.72
 20
1839.69
 30
0.000000
  70
    32
  0
VERTEX
  8
0
  5
45A
 10
3211.69
 20
1839.67
 30
0.000000
  70
    32
  0
VERTEX
  8
0
  5
45B
 10
3211.65
 20
1839.64
 30
0.000000
  70
    32
  0
VERTEX
  8
0
  5
45C
 10
3211.61
 20
1839.61
 30
0.000000
  70
    32
  0
VERTEX
  8
0
  5
45D
 10
3211.58
 20
1839.58
 30
0.000000
  70
    32
  0
VERTEX
  8
0
  5
45E
 10
3211.54
 20
1839.56
 30
0.000000
  70
    32
  0
VERTEX
  8
0
  5
45F
 10
3211.50
 20
1839.53
 30
0.000000
  70
    32
  0
VERTEX
  8
0
  5
460
 10
3211.47
 20
1839.51
 30
0.000000
  70
    32
  0
VERTEX
  8
0
  5
461
 10
3211.43
 20
1839.48
 30
0.000000
  70
    32
  0
VERTEX
  8
0
  5
462
 10
3211.39
 20
1839.45
 30
0.000000
  70
    32
  0
VERTEX
  8
0
  5
463
 10
3211.35
 20
1839.43
 30
0.000000
  70
    32
  0
VERTEX
  8
0
  5
464
 10
3211.32
 20
1839.40
 30
0.000000
  70
    32
  0
VERTEX
  8
0
  5
465
 10
3211.28
 20
1839.38
 30
0.000000
  70
    32
  0
VERTEX
  8
0
  5
466
 10
3211.24
 20
1839.35
 30
0.000000
  70
    32
  0
VERTEX
  8
0
  5
467
 10
3211.20
 20
1839.33
 30
0.000000
  70
    32
  0
VERTEX
  8
0
  5
468
 10
3211.16
 20
1839.30
 30
0.000000
  70
    32
  0
VERTEX
  8
0
  5
469
 10
3211.13
 20
1839.28
 30
0.000000
  70
    32
  0
VERTEX
  8
0
  5
46A
 10
3211.09
 20
1839.25
 30
0.000000
  70
    32
  0
VERTEX
  8
0
  5
46B
 10
3211.05
 20
1839.23
 30
0.000000
  70
    32
  0
VERTEX
  8
0
  5
46C
 10
3211.01
 20
1839.20
 30
0.000000
  70
    32
  0
VERTEX
  8
0
  5
46D
 10
3210.97
 20
1839.18
 30
0.000000
  70
    32
  0
VERTEX
  8
0
  5
46E
 10
3210.93
 20
1839.15
 30
0.000000
  70
    32
  0
VERTEX
  8
0
  5
46F
 10
3210.89
 20
1839.13
 30
0.000000
  70
    32
  0
VERTEX
  8
0
  5
470
 10
3210.86
 20
1839.11
 30
0.000000
  70
    32
  0
VERTEX
  8
0
  5
471
 10
3210.82
 20
1839.08
 30
0.000000
  70
    32
  0
VERTEX
  8
0
  5
472
 10
3210.78
 20
1839.06
 30
0.000000
  70
    32
  0
VERTEX
  8
0
  5
473
 10
3210.74
 20
1839.03
 30
0.000000
  70
    32
  0
VERTEX
  8
0
  5
474
 10
3210.70
 20
1839.01
 30
0.000000
  70
    32
  0
VERTEX
  8
0
  5
475
 10
3210.66
 20
1838.99
 30
0.000000
  70
    32
  0
VERTEX
  8
0
  5
476
 10
3210.62
 20
1838.97
 30
0.000000
  70
    32
  0
VERTEX
  8
0
  5
477
 10
3210.58
 20
1838.94
 30
0.000000
  70
    32
  0
VERTEX
  8
0
  5
478
 10
3210.54
 20
1838.92
 30
0.000000
  70
    32
  0
VERTEX
  8
0
  5
479
 10
3210.50
 20
1838.90
 30
0.000000
  70
    32
  0
VERTEX
  8
0
  5
47A
 10
3210.46
 20
1838.87
 30
0.000000
  70
    32
  0
VERTEX
  8
0
  5
47B
 10
3210.42
 20
1838.85
 30
0.000000
  70
    32
  0
VERTEX
  8
0
  5
47C
 10
3210.38
 20
1838.83
 30
0.000000
  70
    32
  0
VERTEX
  8
0
  5
47D
 10
3210.34
 20
1838.81
 30
0.000000
  70
    32
  0
VERTEX
  8
0
  5
47E
 10
3210.30
 20
1838.79
 30
0.000000
  70
    32
  0
VERTEX
  8
0
  5
47F
 10
3210.26
 20
1838.76
 30
0.000000
  70
    32
  0
VERTEX
  8
0
  5
480
 10
3210.22
 20
1838.74
 30
0.000000
  70
    32
  0
VERTEX
  8
0
  5
481
 10
3210.18
 20
1838.72
 30
0.000000
  70
    32
  0
VERTEX
  8
0
  5
482
 10
3210.14
 20
1838.70
 30
0.000000
  70
    32
  0
VERTEX
  8
0
  5
483
 10
3210.10
 20
1838.68
 30
0.000000
  70
    32
  0
VERTEX
  8
0
  5
484
 10
3210.06
 20
1838.66
 30
0.000000
  70
    32
  0
VERTEX
  8
0
  5
485
 10
3210.02
 20
1838.64
 30
0.000000
  70
    32
  0
VERTEX
  8
0
  5
486
 10
3209.98
 20
1838.62
 30
0.000000
  70
    32
  0
VERTEX
  8
0
  5
487
 10
3209.94
 20
1838.60
 30
0.000000
  70
    32
  0
VERTEX
  8
0
  5
488
 10
3209.90
 20
1838.58
 30
0.000000
  70
    32
  0
VERTEX
  8
0
  5
489
 10
3209.86
 20
1838.56
 30
0.000000
  70
    32
  0
VERTEX
  8
0
  5
48A
 10
3209.82
 20
1838.53
 30
0.000000
  70
    32
  0
VERTEX
  8
0
  5
48B
 10
3209.78
 20
1838.51
 30
0.000000
  70
    32
  0
VERTEX
  8
0
  5
48C
 10
3209.74
 20
1838.49
 30
0.000000
  70
    32
  0
VERTEX
  8
0
  5
48D
 10
3209.70
 20
1838.48
 30
0.000000
  70
    32
  0
VERTEX
  8
0
  5
48E
 10
3209.66
 20
1838.46
 30
0.000000
  70
    32
  0
VERTEX
  8
0
  5
48F
 10
3209.61
 20
1838.44
 30
0.000000
  70
    32
  0
VERTEX
  8
0
  5
490
 10
3209.57
 20
1838.42
 30
0.000000
  70
    32
  0
VERTEX
  8
0
  5
491
 10
3209.53
 20
1838.40
 30
0.000000
  70
    32
  0
VERTEX
  8
0
  5
492
 10
3209.49
 20
1838.38
 30
0.000000
  70
    32
  0
VERTEX
  8
0
  5
493
 10
3209.45
 20
1838.36
 30
0.000000
  70
    32
  0
VERTEX
  8
0
  5
494
 10
3209.41
 20
1838.34
 30
0.000000
  70
    32
  0
VERTEX
  8
0
  5
495
 10
3209.37
 20
1838.32
 30
0.000000
  70
    32
  0
VERTEX
  8
0
  5
496
 10
3209.32
 20
1838.30
 30
0.000000
  70
    32
  0
VERTEX
  8
0
  5
497
 10
3209.28
 20
1838.28
 30
0.000000
  70
    32
  0
VERTEX
  8
0
  5
498
 10
3209.24
 20
1838.27
 30
0.000000
  70
    32
  0
VERTEX
  8
0
  5
499
 10
3209.20
 20
1838.25
 30
0.000000
  70
    32
  0
VERTEX
  8
0
  5
49A
 10
3209.16
 20
1838.23
 30
0.000000
  70
    32
  0
VERTEX
  8
0
  5
49B
 10
3209.12
 20
1838.21
 30
0.000000
  70
    32
  0
VERTEX
  8
0
  5
49C
 10
3209.07
 20
1838.19
 30
0.000000
  70
    32
  0
VERTEX
  8
0
  5
49D
 10
3209.03
 20
1838.18
 30
0.000000
  70
    32
  0
VERTEX
  8
0
  5
49E
 10
3208.99
 20
1838.16
 30
0.000000
  70
    32
  0
VERTEX
  8
0
  5
49F
 10
3208.95
 20
1838.14
 30
0.000000
  70
    32
  0
VERTEX
  8
0
  5
4A0
 10
3208.91
 20
1838.12
 30
0.000000
  70
    32
  0
VERTEX
  8
0
  5
4A1
 10
3208.86
 20
1838.11
 30
0.000000
  70
    32
  0
VERTEX
  8
0
  5
4A2
 10
3208.82
 20
1838.09
 30
0.000000
  70
    32
  0
VERTEX
  8
0
  5
4A3
 10
3208.78
 20
1838.07
 30
0.000000
  70
    32
  0
VERTEX
  8
0
  5
4A4
 10
3208.74
 20
1838.06
 30
0.000000
  70
    32
  0
VERTEX
  8
0
  5
4A5
 10
3208.69
 20
1838.04
 30
0.000000
  70
    32
  0
VERTEX
  8
0
  5
4A6
 10
3208.65
 20
1838.02
 30
0.000000
  70
    32
  0
VERTEX
  8
0
  5
4A7
 10
3208.61
 20
1838.01
 30
0.000000
  70
    32
  0
VERTEX
  8
0
  5
4A8
 10
3208.57
 20
1837.99
 30
0.000000
  70
    32
  0
VERTEX
  8
0
  5
4A9
 10
3208.52
 20
1837.98
 30
0.000000
  70
    32
  0
VERTEX
  8
0
  5
4AA
 10
3208.48
 20
1837.96
 30
0.000000
  70
    32
  0
VERTEX
  8
0
  5
4AB
 10
3208.44
 20
1837.94
 30
0.000000
  70
    32
  0
VERTEX
  8
0
  5
4AC
 10
3208.40
 20
1837.93
 30
0.000000
  70
    32
  0
VERTEX
  8
0
  5
4AD
 10
3208.35
 20
1837.91
 30
0.000000
  70
    32
  0
VERTEX
  8
0
  5
4AE
 10
3208.31
 20
1837.90
 30
0.000000
  70
    32
  0
VERTEX
  8
0
  5
4AF
 10
3208.27
 20
1837.88
 30
0.000000
  70
    32
  0
VERTEX
  8
0
  5
4B0
 10
3208.22
 20
1837.87
 30
0.000000
  70
    32
  0
VERTEX
  8
0
  5
4B1
 10
3208.18
 20
1837.85
 30
0.000000
  70
    32
  0
VERTEX
  8
0
  5
4B2
 10
3208.14
 20
1837.84
 30
0.000000
  70
    32
  0
VERTEX
  8
0
  5
4B3
 10
3208.09
 20
1837.82
 30
0.000000
  70
    32
  0
VERTEX
  8
0
  5
4B4
 10
3208.05
 20
1837.81
 30
0.000000
  70
    32
  0
VERTEX
  8
0
  5
4B5
 10
3208.01
 20
1837.79
 30
0.000000
  70
    32
  0
VERTEX
  8
0
  5
4B6
 10
3207.97
 20
1837.78
 30
0.000000
  70
    32
  0
VERTEX
  8
0
  5
4B7
 10
3207.92
 20
1837.76
 30
0.000000
  70
    32
  0
VERTEX
  8
0
  5
4B8
 10
3207.88
 20
1837.75
 30
0.000000
  70
    32
  0
VERTEX
  8
0
  5
4B9
 10
3207.84
 20
1837.74
 30
0.000000
  70
    32
  0
VERTEX
  8
0
  5
4BA
 10
3207.79
 20
1837.72
 30
0.000000
  70
    32
  0
VERTEX
  8
0
  5
4BB
 10
3207.75
 20
1837.71
 30
0.000000
  70
    32
  0
VERTEX
  8
0
  5
4BC
 10
3207.71
 20
1837.69
 30
0.000000
  70
    32
  0
VERTEX
  8
0
  5
4BD
 10
3207.66
 20
1837.68
 30
0.000000
  70
    32
  0
VERTEX
  8
0
  5
4BE
 10
3207.62
 20
1837.67
 30
0.000000
  70
    32
  0
VERTEX
  8
0
  5
4BF
 10
3207.57
 20
1837.65
 30
0.000000
  70
    32
  0
VERTEX
  8
0
  5
4C0
 10
3207.53
 20
1837.64
 30
0.000000
  70
    32
  0
VERTEX
  8
0
  5
4C1
 10
3207.49
 20
1837.63
 30
0.000000
  70
    32
  0
VERTEX
  8
0
  5
4C2
 10
3207.44
 20
1837.61
 30
0.000000
  70
    32
  0
VERTEX
  8
0
  5
4C3
 10
3207.40
 20
1837.60
 30
0.000000
  70
    32
  0
VERTEX
  8
0
  5
4C4
 10
3207.36
 20
1837.59
 30
0.000000
  70
    32
  0
VERTEX
  8
0
  5
4C5
 10
3207.31
 20
1837.58
 30
0.000000
  70
    32
  0
VERTEX
  8
0
  5
4C6
 10
3207.27
 20
1837.56
 30
0.000000
  70
    32
  0
VERTEX
  8
0
  5
4C7
 10
3207.22
 20
1837.55
 30
0.000000
  70
    32
  0
VERTEX
  8
0
  5
4C8
 10
3207.18
 20
1837.54
 30
0.000000
  70
    32
  0
VERTEX
  8
0
  5
4C9
 10
3207.14
 20
1837.53
 30
0.000000
  70
    32
  0
VERTEX
  8
0
  5
4CA
 10
3207.09
 20
1837.52
 30
0.000000
  70
    32
  0
VERTEX
  8
0
  5
4CB
 10
3207.05
 20
1837.50
 30
0.000000
  70
    32
  0
VERTEX
  8
0
  5
4CC
 10
3207.01
 20
1837.49
 30
0.000000
  70
    32
  0
VERTEX
  8
0
  5
4CD
 10
3206.96
 20
1837.48
 30
0.000000
  70
    32
  0
VERTEX
  8
0
  5
4CE
 10
3206.92
 20
1837.47
 30
0.000000
  70
    32
  0
VERTEX
  8
0
  5
4CF
 10
3206.87
 20
1837.46
 30
0.000000
  70
    32
  0
VERTEX
  8
0
  5
4D0
 10
3206.83
 20
1837.45
 30
0.000000
  70
    32
  0
VERTEX
  8
0
  5
4D1
 10
3206.78
 20
1837.44
 30
0.000000
  70
    32
  0
VERTEX
  8
0
  5
4D2
 10
3206.74
 20
1837.43
 30
0.000000
  70
    32
  0
VERTEX
  8
0
  5
4D3
 10
3206.70
 20
1837.41
 30
0.000000
  70
    32
  0
VERTEX
  8
0
  5
4D4
 10
3206.65
 20
1837.40
 30
0.000000
  70
    32
  0
VERTEX
  8
0
  5
4D5
 10
3206.61
 20
1837.39
 30
0.000000
  70
    32
  0
VERTEX
  8
0
  5
4D6
 10
3206.56
 20
1837.38
 30
0.000000
  70
    32
  0
VERTEX
  8
0
  5
4D7
 10
3206.52
 20
1837.37
 30
0.000000
  70
    32
  0
VERTEX
  8
0
  5
4D8
 10
3206.47
 20
1837.36
 30
0.000000
  70
    32
  0
VERTEX
  8
0
  5
4D9
 10
3206.43
 20
1837.35
 30
0.000000
  70
    32
  0
VERTEX
  8
0
  5
4DA
 10
3206.39
 20
1837.34
 30
0.000000
  70
    32
  0
VERTEX
  8
0
  5
4DB
 10
3206.34
 20
1837.33
 30
0.000000
  70
    32
  0
VERTEX
  8
0
  5
4DC
 10
3206.30
 20
1837.32
 30
0.000000
  70
    32
  0
VERTEX
  8
0
  5
4DD
 10
3206.25
 20
1837.31
 30
0.000000
  70
    32
  0
VERTEX
  8
0
  5
4DE
 10
3206.21
 20
1837.30
 30
0.000000
  70
    32
  0
VERTEX
  8
0
  5
4DF
 10
3206.16
 20
1837.29
 30
0.000000
  70
    32
  0
VERTEX
  8
0
  5
4E0
 10
3206.12
 20
1837.29
 30
0.000000
  70
    32
  0
VERTEX
  8
0
  5
4E1
 10
3206.07
 20
1837.28
 30
0.000000
  70
    32
  0
VERTEX
  8
0
  5
4E2
 10
3206.03
 20
1837.27
 30
0.000000
  70
    32
  0
VERTEX
  8
0
  5
4E3
 10
3205.98
 20
1837.26
 30
0.000000
  70
    32
  0
VERTEX
  8
0
  5
4E4
 10
3205.94
 20
1837.25
 30
0.000000
  70
    32
  0
VERTEX
  8
0
  5
4E5
 10
3205.90
 20
1837.24
 30
0.000000
  70
    32
  0
VERTEX
  8
0
  5
4E6
 10
3205.85
 20
1837.23
 30
0.000000
  70
    32
  0
VERTEX
  8
0
  5
4E7
 10
3205.81
 20
1837.22
 30
0.000000
  70
    32
  0
VERTEX
  8
0
  5
4E8
 10
3205.76
 20
1837.22
 30
0.000000
  70
    32
  0
VERTEX
  8
0
  5
4E9
 10
3205.72
 20
1837.21
 30
0.000000
  70
    32
  0
VERTEX
  8
0
  5
4EA
 10
3205.67
 20
1837.20
 30
0.000000
  70
    32
  0
VERTEX
  8
0
  5
4EB
 10
3205.63
 20
1837.19
 30
0.000000
  70
    32
  0
VERTEX
  8
0
  5
4EC
 10
3205.58
 20
1837.18
 30
0.000000
  70
    32
  0
VERTEX
  8
0
  5
4ED
 10
3205.54
 20
1837.18
 30
0.000000
  70
    32
  0
VERTEX
  8
0
  5
4EE
 10
3205.49
 20
1837.17
 30
0.000000
  70
    32
  0
VERTEX
  8
0
  5
4EF
 10
3205.45
 20
1837.16
 30
0.000000
  70
    32
  0
VERTEX
  8
0
  5
4F0
 10
3205.40
 20
1837.15
 30
0.000000
  70
    32
  0
VERTEX
  8
0
  5
4F1
 10
3205.36
 20
1837.15
 30
0.000000
  70
    32
  0
VERTEX
  8
0
  5
4F2
 10
3205.31
 20
1837.14
 30
0.000000
  70
    32
  0
VERTEX
  8
0
  5
4F3
 10
3205.27
 20
1837.13
 30
0.000000
  70
    32
  0
VERTEX
  8
0
  5
4F4
 10
3205.22
 20
1837.13
 30
0.000000
  70
    32
  0
VERTEX
  8
0
  5
4F5
 10
3205.18
 20
1837.12
 30
0.000000
  70
    32
  0
VERTEX
  8
0
  5
4F6
 10
3205.13
 20
1837.11
 30
0.000000
  70
    32
  0
VERTEX
  8
0
  5
4F7
 10
3205.09
 20
1837.11
 30
0.000000
  70
    32
  0
VERTEX
  8
0
  5
4F8
 10
3205.04
 20
1837.10
 30
0.000000
  70
    32
  0
VERTEX
  8
0
  5
4F9
 10
3205.00
 20
1837.09
 30
0.000000
  70
    32
  0
VERTEX
  8
0
  5
4FA
 10
3204.95
 20
1837.09
 30
0.000000
  70
    32
  0
VERTEX
  8
0
  5
4FB
 10
3204.91
 20
1837.08
 30
0.000000
  70
    32
  0
VERTEX
  8
0
  5
4FC
 10
3204.86
 20
1837.08
 30
0.000000
  70
    32
  0
VERTEX
  8
0
  5
4FD
 10
3204.82
 20
1837.07
 30
0.000000
  70
    32
  0
VERTEX
  8
0
  5
4FE
 10
3204.77
 20
1837.06
 30
0.000000
  70
    32
  0
VERTEX
  8
0
  5
4FF
 10
3204.73
 20
1837.06
 30
0.000000
  70
    32
  0
VERTEX
  8
0
  5
500
 10
3204.68
 20
1837.05
 30
0.000000
  70
    32
  0
VERTEX
  8
0
  5
501
 10
3204.64
 20
1837.05
 30
0.000000
  70
    32
  0
VERTEX
  8
0
  5
502
 10
3204.59
 20
1837.04
 30
0.000000
  70
    32
  0
VERTEX
  8
0
  5
503
 10
3204.54
 20
1837.04
 30
0.000000
  70
    32
  0
VERTEX
  8
0
  5
504
 10
3204.50
 20
1837.03
 30
0.000000
  70
    32
  0
VERTEX
  8
0
  5
505
 10
3204.45
 20
1837.03
 30
0.000000
  70
    32
  0
VERTEX
  8
0
  5
506
 10
3204.41
 20
1837.02
 30
0.000000
  70
    32
  0
VERTEX
  8
0
  5
507
 10
3204.36
 20
1837.02
 30
0.000000
  70
    32
  0
VERTEX
  8
0
  5
508
 10
3204.32
 20
1837.01
 30
0.000000
  70
    32
  0
VERTEX
  8
0
  5
509
 10
3204.27
 20
1837.01
 30
0.000000
  70
    32
  0
VERTEX
  8
0
  5
50A
 10
3204.23
 20
1837.00
 30
0.000000
  70
    32
  0
VERTEX
  8
0
  5
50B
 10
3204.18
 20
1837.00
 30
0.000000
  70
    32
  0
VERTEX
  8
0
  5
50C
 10
3204.14
 20
1837.00
 30
0.000000
  70
    32
  0
VERTEX
  8
0
  5
50D
 10
3204.09
 20
1836.99
 30
0.000000
  70
    32
  0
VERTEX
  8
0
  5
50E
 10
3204.05
 20
1836.99
 30
0.000000
  70
    32
  0
VERTEX
  8
0
  5
50F
 10
3204.00
 20
1836.98
 30
0.000000
  70
    32
  0
VERTEX
  8
0
  5
510
 10
3203.96
 20
1836.98
 30
0.000000
  70
    32
  0
VERTEX
  8
0
  5
511
 10
3203.91
 20
1836.98
 30
0.000000
  70
    32
  0
VERTEX
  8
0
  5
512
 10
3203.86
 20
1836.97
 30
0.000000
  70
    32
  0
VERTEX
  8
0
  5
513
 10
3203.82
 20
1836.97
 30
0.000000
  70
    32
  0
VERTEX
  8
0
  5
514
 10
3203.77
 20
1836.97
 30
0.000000
  70
    32
  0
VERTEX
  8
0
  5
515
 10
3203.73
 20
1836.96
 30
0.000000
  70
    32
  0
VERTEX
  8
0
  5
516
 10
3203.68
 20
1836.96
 30
0.000000
  70
    32
  0
VERTEX
  8
0
  5
517
 10
3203.64
 20
1836.96
 30
0.000000
  70
    32
  0
VERTEX
  8
0
  5
518
 10
3203.59
 20
1836.96
 30
0.000000
  70
    32
  0
VERTEX
  8
0
  5
519
 10
3203.55
 20
1836.95
 30
0.000000
  70
    32
  0
VERTEX
  8
0
  5
51A
 10
3203.50
 20
1836.95
 30
0.000000
  70
    32
  0
VERTEX
  8
0
  5
51B
 10
3203.46
 20
1836.95
 30
0.000000
  70
    32
  0
VERTEX
  8
0
  5
51C
 10
3203.41
 20
1836.95
 30
0.000000
  70
    32
  0
VERTEX
  8
0
  5
51D
 10
3203.36
 20
1836.94
 30
0.000000
  70
    32
  0
VERTEX
  8
0
  5
51E
 10
3203.32
 20
1836.94
 30
0.000000
  70
    32
  0
VERTEX
  8
0
  5
51F
 10
3203.27
 20
1836.94
 30
0.000000
  70
    32
  0
VERTEX
  8
0
  5
520
 10
3203.23
 20
1836.94
 30
0.000000
  70
    32
  0
VERTEX
  8
0
  5
521
 10
3203.18
 20
1836.94
 30
0.000000
  70
    32
  0
VERTEX
  8
0
  5
522
 10
3203.14
 20
1836.94
 30
0.000000
  70
    32
  0
VERTEX
  8
0
  5
523
 10
3203.09
 20
1836.93
 30
0.000000
  70
    32
  0
VERTEX
  8
0
  5
524
 10
3203.05
 20
1836.93
 30
0.000000
  70
    32
  0
VERTEX
  8
0
  5
525
 10
3203.00
 20
1836.93
 30
0.000000
  70
    32
  0
VERTEX
  8
0
  5
526
 10
3202.96
 20
1836.93
 30
0.000000
  70
    32
  0
VERTEX
  8
0
  5
527
 10
3202.91
 20
1836.93
 30
0.000000
  70
    32
  0
VERTEX
  8
0
  5
528
 10
3202.86
 20
1836.93
 30
0.000000
  70
    32
  0
VERTEX
  8
0
  5
529
 10
3202.82
 20
1836.93
 30
0.000000
  70
    32
  0
VERTEX
  8
0
  5
52A
 10
3202.77
 20
1836.93
 30
0.000000
  70
    32
  0
VERTEX
  8
0
  5
52B
 10
3202.73
 20
1836.93
 30
0.000000
  70
    32
  0
VERTEX
  8
0
  5
52C
 10
3202.68
 20
1836.93
 30
0.000000
  70
    32
  0
VERTEX
  8
0
  5
52D
 10
3202.64
 20
1836.93
 30
0.000000
  70
    32
  0
VERTEX
  8
0
  5
52E
 10
3202.59
 20
1836.93
 30
0.000000
  70
    32
  0
VERTEX
  8
0
  5
52F
 10
3202.55
 20
1836.93
 30
0.000000
  70
    32
  0
SEQEND
  8
0
  5
530
  0
POLYLINE
  8
0
  5
531
  66
     1
 10
0.000000
 20
0.000000
 30
0.000000
  70
     8
  0
VERTEX
  8
0
  5
532
 10
3217.82
 20
1841.25
 30
0.000000
  70
    32
  0
VERTEX
  8
0
  5
533
 10
3217.79
 20
1841.20
 30
0.000000
  70
    32
  0
VERTEX
  8
0
  5
534
 10
3217.76
 20
1841.14
 30
0.000000
  70
    32
  0
VERTEX
  8
0
  5
535
 10
3217.73
 20
1841.09
 30
0.000000
  70
    32
  0
VERTEX
  8
0
  5
536
 10
3217.70
 20
1841.04
 30
0.000000
  70
    32
  0
VERTEX
  8
0
  5
537
 10
3217.67
 20
1840.99
 30
0.000000
  70
    32
  0
VERTEX
  8
0
  5
538
 10
3217.63
 20
1840.94
 30
0.000000
  70
    32
  0
VERTEX
  8
0
  5
539
 10
3217.60
 20
1840.89
 30
0.000000
  70
    32
  0
VERTEX
  8
0
  5
53A
 10
3217.57
 20
1840.84
 30
0.000000
  70
    32
  0
VERTEX
  8
0
  5
53B
 10
3217.53
 20
1840.78
 30
0.000000
  70
    32
  0
VERTEX
  8
0
  5
53C
 10
3217.50
 20
1840.73
 30
0.000000
  70
    32
  0
VERTEX
  8
0
  5
53D
 10
3217.47
 20
1840.68
 30
0.000000
  70
    32
  0
VERTEX
  8
0
  5
53E
 10
3217.43
 20
1840.63
 30
0.000000
  70
    32
  0
VERTEX
  8
0
  5
53F
 10
3217.40
 20
1840.58
 30
0.000000
  70
    32
  0
VERTEX
  8
0
  5
540
 10
3217.36
 20
1840.53
 30
0.000000
  70
    32
  0
VERTEX
  8
0
  5
541
 10
3217.33
 20
1840.49
 30
0.000000
  70
    32
  0
VERTEX
  8
0
  5
542
 10
3217.29
 20
1840.44
 30
0.000000
  70
    32
  0
VERTEX
  8
0
  5
543
 10
3217.25
 20
1840.39
 30
0.000000
  70
    32
  0
VERTEX
  8
0
  5
544
 10
3217.22
 20
1840.34
 30
0.000000
  70
    32
  0
VERTEX
  8
0
  5
545
 10
3217.18
 20
1840.29
 30
0.000000
  70
    32
  0
VERTEX
  8
0
  5
546
 10
3217.14
 20
1840.24
 30
0.000000
  70
    32
  0
VERTEX
  8
0
  5
547
 10
3217.11
 20
1840.19
 30
0.000000
  70
    32
  0
VERTEX
  8
0
  5
548
 10
3217.07
 20
1840.15
 30
0.000000
  70
    32
  0
VERTEX
  8
0
  5
549
 10
3217.03
 20
1840.10
 30
0.000000
  70
    32
  0
VERTEX
  8
0
  5
54A
 10
3216.99
 20
1840.05
 30
0.000000
  70
    32
  0
VERTEX
  8
0
  5
54B
 10
3216.96
 20
1840.00
 30
0.000000
  70
    32
  0
VERTEX
  8
0
  5
54C
 10
3216.92
 20
1839.96
 30
0.000000
  70
    32
  0
VERTEX
  8
0
  5
54D
 10
3216.88
 20
1839.91
 30
0.000000
  70
    32
  0
VERTEX
  8
0
  5
54E
 10
3216.84
 20
1839.86
 30
0.000000
  70
    32
  0
VERTEX
  8
0
  5
54F
 10
3216.80
 20
1839.81
 30
0.000000
  70
    32
  0
VERTEX
  8
0
  5
550
 10
3216.76
 20
1839.77
 30
0.000000
  70
    32
  0
VERTEX
  8
0
  5
551
 10
3216.72
 20
1839.72
 30
0.000000
  70
    32
  0
VERTEX
  8
0
  5
552
 10
3216.68
 20
1839.68
 30
0.000000
  70
    32
  0
VERTEX
  8
0
  5
553
 10
3216.64
 20
1839.63
 30
0.000000
  70
    32
  0
VERTEX
  8
0
  5
554
 10
3216.60
 20
1839.59
 30
0.000000
  70
    32
  0
VERTEX
  8
0
  5
555
 10
3216.56
 20
1839.54
 30
0.000000
  70
    32
  0
VERTEX
  8
0
  5
556
 10
3216.52
 20
1839.49
 30
0.000000
  70
    32
  0
VERTEX
  8
0
  5
557
 10
3216.48
 20
1839.45
 30
0.000000
  70
    32
  0
VERTEX
  8
0
  5
558
 10
3216.44
 20
1839.41
 30
0.000000
  70
    32
  0
VERTEX
  8
0
  5
559
 10
3216.40
 20
1839.36
 30
0.000000
  70
    32
  0
VERTEX
  8
0
  5
55A
 10
3216.36
 20
1839.32
 30
0.000000
  70
    32
  0
VERTEX
  8
0
  5
55B
 10
3216.31
 20
1839.27
 30
0.000000
  70
    32
  0
VERTEX
  8
0
  5
55C
 10
3216.27
 20
1839.23
 30
0.000000
  70
    32
  0
VERTEX
  8
0
  5
55D
 10
3216.23
 20
1839.19
 30
0.000000
  70
    32
  0
VERTEX
  8
0
  5
55E
 10
3216.19
 20
1839.14
 30
0.000000
  70
    32
  0
VERTEX
  8
0
  5
55F
 10
3216.14
 20
1839.10
 30
0.000000
  70
    32
  0
VERTEX
  8
0
  5
560
 10
3216.10
 20
1839.06
 30
0.000000
  70
    32
  0
VERTEX
  8
0
  5
561
 10
3216.06
 20
1839.01
 30
0.000000
  70
    32
  0
VERTEX
  8
0
  5
562
 10
3216.01
 20
1838.97
 30
0.000000
  70
    32
  0
VERTEX
  8
0
  5
563
 10
3215.97
 20
1838.93
 30
0.000000
  70
    32
  0
VERTEX
  8
0
  5
564
 10
3215.93
 20
1838.89
 30
0.000000
  70
    32
  0
VERTEX
  8
0
  5
565
 10
3215.88
 20
1838.84
 30
0.000000
  70
    32
  0
VERTEX
  8
0
  5
566
 10
3215.84
 20
1838.80
 30
0.000000
  70
    32
  0
VERTEX
  8
0
  5
567
 10
3215.79
 20
1838.76
 30
0.000000
  70
    32
  0
VERTEX
  8
0
  5
568
 10
3215.75
 20
1838.72
 30
0.000000
  70
    32
  0
VERTEX
  8
0
  5
569
 10
3215.70
 20
1838.68
 30
0.000000
  70
    32
  0
VERTEX
  8
0
  5
56A
 10
3215.66
 20
1838.64
 30
0.000000
  70
    32
  0
VERTEX
  8
0
  5
56B
 10
3215.61
 20
1838.60
 30
0.000000
  70
    32
  0
VERTEX
  8
0
  5
56C
 10
3215.57
 20
1838.56
 30
0.000000
  70
    32
  0
VERTEX
  8
0
  5
56D
 10
3215.52
 20
1838.52
 30
0.000000
  70
    32
  0
VERTEX
  8
0
  5
56E
 10
3215.48
 20
1838.48
 30
0.000000
  70
    32
  0
VERTEX
  8
0
  5
56F
 10
3215.43
 20
1838.44
 30
0.000000
  70
    32
  0
VERTEX
  8
0
  5
570
 10
3215.38
 20
1838.40
 30
0.000000
  70
    32
  0
VERTEX
  8
0
  5
571
 10
3215.34
 20
1838.36
 30
0.000000
  70
    32
  0
VERTEX
  8
0
  5
572
 10
3215.29
 20
1838.32
 30
0.000000
  70
    32
  0
VERTEX
  8
0
  5
573
 10
3215.25
 20
1838.28
 30
0.000000
  70
    32
  0
VERTEX
  8
0
  5
574
 10
3215.20
 20
1838.24
 30
0.000000
  70
    32
  0
VERTEX
  8
0
  5
575
 10
3215.15
 20
1838.20
 30
0.000000
  70
    32
  0
VERTEX
  8
0
  5
576
 10
3215.10
 20
1838.17
 30
0.000000
  70
    32
  0
VERTEX
  8
0
  5
577
 10
3215.06
 20
1838.13
 30
0.000000
  70
    32
  0
VERTEX
  8
0
  5
578
 10
3215.01
 20
1838.09
 30
0.000000
  70
    32
  0
VERTEX
  8
0
  5
579
 10
3214.96
 20
1838.05
 30
0.000000
  70
    32
  0
VERTEX
  8
0
  5
57A
 10
3214.91
 20
1838.01
 30
0.000000
  70
    32
  0
VERTEX
  8
0
  5
57B
 10
3214.87
 20
1837.98
 30
0.000000
  70
    32
  0
VERTEX
  8
0
  5
57C
 10
3214.82
 20
1837.94
 30
0.000000
  70
    32
  0
VERTEX
  8
0
  5
57D
 10
3214.77
 20
1837.90
 30
0.000000
  70
    32
  0
VERTEX
  8
0
  5
57E
 10
3214.72
 20
1837.87
 30
0.000000
  70
    32
  0
VERTEX
  8
0
  5
57F
 10
3214.67
 20
1837.83
 30
0.000000
  70
    32
  0
VERTEX
  8
0
  5
580
 10
3214.62
 20
1837.79
 30
0.000000
  70
    32
  0
VERTEX
  8
0
  5
581
 10
3214.58
 20
1837.76
 30
0.000000
  70
    32
  0
VERTEX
  8
0
  5
582
 10
3214.53
 20
1837.72
 30
0.000000
  70
    32
  0
VERTEX
  8
0
  5
583
 10
3214.48
 20
1837.69
 30
0.000000
  70
    32
  0
VERTEX
  8
0
  5
584
 10
3214.43
 20
1837.65
 30
0.000000
  70
    32
  0
VERTEX
  8
0
  5
585
 10
3214.38
 20
1837.61
 30
0.000000
  70
    32
  0
VERTEX
  8
0
  5
586
 10
3214.33
 20
1837.58
 30
0.000000
  70
    32
  0
VERTEX
  8
0
  5
587
 10
3214.28
 20
1837.55
 30
0.000000
  70
    32
  0
VERTEX
  8
0
  5
588
 10
3214.23
 20
1837.51
 30
0.000000
  70
    32
  0
VERTEX
  8
0
  5
589
 10
3214.18
 20
1837.48
 30
0.000000
  70
    32
  0
VERTEX
  8
0
  5
58A
 10
3214.13
 20
1837.44
 30
0.000000
  70
    32
  0
VERTEX
  8
0
  5
58B
 10
3214.08
 20
1837.41
 30
0.000000
  70
    32
  0
VERTEX
  8
0
  5
58C
 10
3214.03
 20
1837.37
 30
0.000000
  70
    32
  0
VERTEX
  8
0
  5
58D
 10
3213.98
 20
1837.34
 30
0.000000
  70
    32
  0
VERTEX
  8
0
  5
58E
 10
3213.93
 20
1837.31
 30
0.000000
  70
    32
  0
VERTEX
  8
0
  5
58F
 10
3213.88
 20
1837.27
 30
0.000000
  70
    32
  0
VERTEX
  8
0
  5
590
 10
3213.82
 20
1837.24
 30
0.000000
  70
    32
  0
VERTEX
  8
0
  5
591
 10
3213.77
 20
1837.21
 30
0.000000
  70
    32
  0
VERTEX
  8
0
  5
592
 10
3213.72
 20
1837.17
 30
0.000000
  70
    32
  0
VERTEX
  8
0
  5
593
 10
3213.67
 20
1837.14
 30
0.000000
  70
    32
  0
VERTEX
  8
0
  5
594
 10
3213.62
 20
1837.11
 30
0.000000
  70
    32
  0
VERTEX
  8
0
  5
595
 10
3213.57
 20
1837.08
 30
0.000000
  70
    32
  0
VERTEX
  8
0
  5
596
 10
3213.52
 20
1837.05
 30
0.000000
  70
    32
  0
VERTEX
  8
0
  5
597
 10
3213.46
 20
1837.01
 30
0.000000
  70
    32
  0
VERTEX
  8
0
  5
598
 10
3213.41
 20
1836.98
 30
0.000000
  70
    32
  0
VERTEX
  8
0
  5
599
 10
3213.36
 20
1836.95
 30
0.000000
  70
    32
  0
VERTEX
  8
0
  5
59A
 10
3213.31
 20
1836.92
 30
0.000000
  70
    32
  0
VERTEX
  8
0
  5
59B
 10
3213.26
 20
1836.89
 30
0.000000
  70
    32
  0
VERTEX
  8
0
  5
59C
 10
3213.20
 20
1836.86
 30
0.000000
  70
    32
  0
VERTEX
  8
0
  5
59D
 10
3213.15
 20
1836.83
 30
0.000000
  70
    32
  0
VERTEX
  8
0
  5
59E
 10
3213.10
 20
1836.80
 30
0.000000
  70
    32
  0
VERTEX
  8
0
  5
59F
 10
3213.05
 20
1836.77
 30
0.000000
  70
    32
  0
VERTEX
  8
0
  5
5A0
 10
3212.99
 20
1836.74
 30
0.000000
  70
    32
  0
VERTEX
  8
0
  5
5A1
 10
3212.94
 20
1836.71
 30
0.000000
  70
    32
  0
VERTEX
  8
0
  5
5A2
 10
3212.89
 20
1836.68
 30
0.000000
  70
    32
  0
VERTEX
  8
0
  5
5A3
 10
3212.83
 20
1836.65
 30
0.000000
  70
    32
  0
VERTEX
  8
0
  5
5A4
 10
3212.78
 20
1836.62
 30
0.000000
  70
    32
  0
VERTEX
  8
0
  5
5A5
 10
3212.73
 20
1836.59
 30
0.000000
  70
    32
  0
VERTEX
  8
0
  5
5A6
 10
3212.67
 20
1836.56
 30
0.000000
  70
    32
  0
VERTEX
  8
0
  5
5A7
 10
3212.62
 20
1836.53
 30
0.000000
  70
    32
  0
VERTEX
  8
0
  5
5A8
 10
3212.57
 20
1836.51
 30
0.000000
  70
    32
  0
VERTEX
  8
0
  5
5A9
 10
3212.51
 20
1836.48
 30
0.000000
  70
    32
  0
VERTEX
  8
0
  5
5AA
 10
3212.46
 20
1836.45
 30
0.000000
  70
    32
  0
VERTEX
  8
0
  5
5AB
 10
3212.40
 20
1836.42
 30
0.000000
  70
    32
  0
VERTEX
  8
0
  5
5AC
 10
3212.35
 20
1836.39
 30
0.000000
  70
    32
  0
VERTEX
  8
0
  5
5AD
 10
3212.30
 20
1836.37
 30
0.000000
  70
    32
  0
VERTEX
  8
0
  5
5AE
 10
3212.24
 20
1836.34
 30
0.000000
  70
    32
  0
VERTEX
  8
0
  5
5AF
 10
3212.19
 20
1836.31
 30
0.000000
  70
    32
  0
VERTEX
  8
0
  5
5B0
 10
3212.13
 20
1836.29
 30
0.000000
  70
    32
  0
VERTEX
  8
0
  5
5B1
 10
3212.08
 20
1836.26
 30
0.000000
  70
    32
  0
VERTEX
  8
0
  5
5B2
 10
3212.02
 20
1836.23
 30
0.000000
  70
    32
  0
VERTEX
  8
0
  5
5B3
 10
3211.97
 20
1836.21
 30
0.000000
  70
    32
  0
VERTEX
  8
0
  5
5B4
 10
3211.91
 20
1836.18
 30
0.000000
  70
    32
  0
VERTEX
  8
0
  5
5B5
 10
3211.86
 20
1836.15
 30
0.000000
  70
    32
  0
VERTEX
  8
0
  5
5B6
 10
3211.80
 20
1836.13
 30
0.000000
  70
    32
  0
VERTEX
  8
0
  5
5B7
 10
3211.75
 20
1836.10
 30
0.000000
  70
    32
  0
VERTEX
  8
0
  5
5B8
 10
3211.69
 20
1836.08
 30
0.000000
  70
    32
  0
VERTEX
  8
0
  5
5B9
 10
3211.64
 20
1836.05
 30
0.000000
  70
    32
  0
VERTEX
  8
0
  5
5BA
 10
3211.58
 20
1836.03
 30
0.000000
  70
    32
  0
VERTEX
  8
0
  5
5BB
 10
3211.53
 20
1836.00
 30
0.000000
  70
    32
  0
VERTEX
  8
0
  5
5BC
 10
3211.47
 20
1835.98
 30
0.000000
  70
    32
  0
VERTEX
  8
0
  5
5BD
 10
3211.42
 20
1835.95
 30
0.000000
  70
    32
  0
VERTEX
  8
0
  5
5BE
 10
3211.36
 20
1835.93
 30
0.000000
  70
    32
  0
VERTEX
  8
0
  5
5BF
 10
3211.31
 20
1835.90
 30
0.000000
  70
    32
  0
VERTEX
  8
0
  5
5C0
 10
3211.25
 20
1835.88
 30
0.000000
  70
    32
  0
VERTEX
  8
0
  5
5C1
 10
3211.19
 20
1835.86
 30
0.000000
  70
    32
  0
VERTEX
  8
0
  5
5C2
 10
3211.14
 20
1835.83
 30
0.000000
  70
    32
  0
VERTEX
  8
0
  5
5C3
 10
3211.08
 20
1835.81
 30
0.000000
  70
    32
  0
VERTEX
  8
0
  5
5C4
 10
3211.03
 20
1835.79
 30
0.000000
  70
    32
  0
VERTEX
  8
0
  5
5C5
 10
3210.97
 20
1835.76
 30
0.000000
  70
    32
  0
VERTEX
  8
0
  5
5C6
 10
3210.91
 20
1835.74
 30
0.000000
  70
    32
  0
VERTEX
  8
0
  5
5C7
 10
3210.86
 20
1835.72
 30
0.000000
  70
    32
  0
VERTEX
  8
0
  5
5C8
 10
3210.80
 20
1835.69
 30
0.000000
  70
    32
  0
VERTEX
  8
0
  5
5C9
 10
3210.74
 20
1835.67
 30
0.000000
  70
    32
  0
VERTEX
  8
0
  5
5CA
 10
3210.69
 20
1835.65
 30
0.000000
  70
    32
  0
VERTEX
  8
0
  5
5CB
 10
3210.63
 20
1835.63
 30
0.000000
  70
    32
  0
VERTEX
  8
0
  5
5CC
 10
3210.57
 20
1835.61
 30
0.000000
  70
    32
  0
VERTEX
  8
0
  5
5CD
 10
3210.52
 20
1835.58
 30
0.000000
  70
    32
  0
VERTEX
  8
0
  5
5CE
 10
3210.46
 20
1835.56
 30
0.000000
  70
    32
  0
VERTEX
  8
0
  5
5CF
 10
3210.40
 20
1835.54
 30
0.000000
  70
    32
  0
VERTEX
  8
0
  5
5D0
 10
3210.35
 20
1835.52
 30
0.000000
  70
    32
  0
VERTEX
  8
0
  5
5D1
 10
3210.29
 20
1835.50
 30
0.000000
  70
    32
  0
VERTEX
  8
0
  5
5D2
 10
3210.23
 20
1835.48
 30
0.000000
  70
    32
  0
VERTEX
  8
0
  5
5D3
 10
3210.18
 20
1835.46
 30
0.000000
  70
    32
  0
VERTEX
  8
0
  5
5D4
 10
3210.12
 20
1835.44
 30
0.000000
  70
    32
  0
VERTEX
  8
0
  5
5D5
 10
3210.06
 20
1835.42
 30
0.000000
  70
    32
  0
VERTEX
  8
0
  5
5D6
 10
3210.00
 20
1835.40
 30
0.000000
  70
    32
  0
VERTEX
  8
0
  5
5D7
 10
3209.95
 20
1835.38
 30
0.000000
  70
    32
  0
VERTEX
  8
0
  5
5D8
 10
3209.89
 20
1835.36
 30
0.000000
  70
    32
  0
VERTEX
  8
0
  5
5D9
 10
3209.83
 20
1835.34
 30
0.000000
  70
    32
  0
VERTEX
  8
0
  5
5DA
 10
3209.77
 20
1835.32
 30
0.000000
  70
    32
  0
VERTEX
  8
0
  5
5DB
 10
3209.72
 20
1835.30
 30
0.000000
  70
    32
  0
VERTEX
  8
0
  5
5DC
 10
3209.66
 20
1835.28
 30
0.000000
  70
    32
  0
VERTEX
  8
0
  5
5DD
 10
3209.60
 20
1835.26
 30
0.000000
  70
    32
  0
VERTEX
  8
0
  5
5DE
 10
3209.54
 20
1835.24
 30
0.000000
  70
    32
  0
VERTEX
  8
0
  5
5DF
 10
3209.48
 20
1835.22
 30
0.000000
  70
    32
  0
VERTEX
  8
0
  5
5E0
 10
3209.43
 20
1835.20
 30
0.000000
  70
    32
  0
VERTEX
  8
0
  5
5E1
 10
3209.37
 20
1835.19
 30
0.000000
  70
    32
  0
VERTEX
  8
0
  5
5E2
 10
3209.31
 20
1835.17
 30
0.000000
  70
    32
  0
VERTEX
  8
0
  5
5E3
 10
3209.25
 20
1835.15
 30
0.000000
  70
    32
  0
VERTEX
  8
0
  5
5E4
 10
3209.19
 20
1835.13
 30
0.000000
  70
    32
  0
VERTEX
  8
0
  5
5E5
 10
3209.14
 20
1835.11
 30
0.000000
  70
    32
  0
VERTEX
  8
0
  5
5E6
 10
3209.08
 20
1835.10
 30
0.000000
  70
    32
  0
VERTEX
  8
0
  5
5E7
 10
3209.02
 20
1835.08
 30
0.000000
  70
    32
  0
VERTEX
  8
0
  5
5E8
 10
3208.96
 20
1835.06
 30
0.000000
  70
    32
  0
VERTEX
  8
0
  5
5E9
 10
3208.90
 20
1835.05
 30
0.000000
  70
    32
  0
VERTEX
  8
0
  5
5EA
 10
3208.84
 20
1835.03
 30
0.000000
  70
    32
  0
VERTEX
  8
0
  5
5EB
 10
3208.79
 20
1835.01
 30
0.000000
  70
    32
  0
VERTEX
  8
0
  5
5EC
 10
3208.73
 20
1835.00
 30
0.000000
  70
    32
  0
VERTEX
  8
0
  5
5ED
 10
3208.67
 20
1834.98
 30
0.000000
  70
    32
  0
VERTEX
  8
0
  5
5EE
 10
3208.61
 20
1834.96
 30
0.000000
  70
    32
  0
VERTEX
  8
0
  5
5EF
 10
3208.55
 20
1834.95
 30
0.000000
  70
    32
  0
VERTEX
  8
0
  5
5F0
 10
3208.49
 20
1834.93
 30
0.000000
  70
    32
  0
VERTEX
  8
0
  5
5F1
 10
3208.43
 20
1834.92
 30
0.000000
  70
    32
  0
VERTEX
  8
0
  5
5F2
 10
3208.37
 20
1834.90
 30
0.000000
  70
    32
  0
VERTEX
  8
0
  5
5F3
 10
3208.32
 20
1834.89
 30
0.000000
  70
    32
  0
VERTEX
  8
0
  5
5F4
 10
3208.26
 20
1834.87
 30
0.000000
  70
    32
  0
VERTEX
  8
0
  5
5F5
 10
3208.20
 20
1834.86
 30
0.000000
  70
    32
  0
VERTEX
  8
0
  5
5F6
 10
3208.14
 20
1834.84
 30
0.000000
  70
    32
  0
VERTEX
  8
0
  5
5F7
 10
3208.08
 20
1834.83
 30
0.000000
  70
    32
  0
VERTEX
  8
0
  5
5F8
 10
3208.02
 20
1834.81
 30
0.000000
  70
    32
  0
VERTEX
  8
0
  5
5F9
 10
3207.96
 20
1834.80
 30
0.000000
  70
    32
  0
VERTEX
  8
0
  5
5FA
 10
3207.90
 20
1834.78
 30
0.000000
  70
    32
  0
VERTEX
  8
0
  5
5FB
 10
3207.84
 20
1834.77
 30
0.000000
  70
    32
  0
VERTEX
  8
0
  5
5FC
 10
3207.78
 20
1834.76
 30
0.000000
  70
    32
  0
VERTEX
  8
0
  5
5FD
 10
3207.72
 20
1834.74
 30
0.000000
  70
    32
  0
VERTEX
  8
0
  5
5FE
 10
3207.66
 20
1834.73
 30
0.000000
  70
    32
  0
VERTEX
  8
0
  5
5FF
 10
3207.60
 20
1834.72
 30
0.000000
  70
    32
  0
VERTEX
  8
0
  5
600
 10
3207.55
 20
1834.70
 30
0.000000
  70
    32
  0
VERTEX
  8
0
  5
601
 10
3207.49
 20
1834.69
 30
0.000000
  70
    32
  0
VERTEX
  8
0
  5
602
 10
3207.43
 20
1834.68
 30
0.000000
  70
    32
  0
VERTEX
  8
0
  5
603
 10
3207.37
 20
1834.66
 30
0.000000
  70
    32
  0
VERTEX
  8
0
  5
604
 10
3207.31
 20
1834.65
 30
0.000000
  70
    32
  0
VERTEX
  8
0
  5
605
 10
3207.25
 20
1834.64
 30
0.000000
  70
    32
  0
VERTEX
  8
0
  5
606
 10
3207.19
 20
1834.63
 30
0.000000
  70
    32
  0
VERTEX
  8
0
  5
607
 10
3207.13
 20
1834.62
 30
0.000000
  70
    32
  0
VERTEX
  8
0
  5
608
 10
3207.07
 20
1834.60
 30
0.000000
  70
    32
  0
VERTEX
  8
0
  5
609
 10
3207.01
 20
1834.59
 30
0.000000
  70
    32
  0
VERTEX
  8
0
  5
60A
 10
3206.95
 20
1834.58
 30
0.000000
  70
    32
  0
VERTEX
  8
0
  5
60B
 10
3206.89
 20
1834.57
 30
0.000000
  70
    32
  0
VERTEX
  8
0
  5
60C
 10
3206.83
 20
1834.56
 30
0.000000
  70
    32
  0
VERTEX
  8
0
  5
60D
 10
3206.77
 20
1834.55
 30
0.000000
  70
    32
  0
VERTEX
  8
0
  5
60E
 10
3206.71
 20
1834.54
 30
0.000000
  70
    32
  0
VERTEX
  8
0
  5
60F
 10
3206.65
 20
1834.53
 30
0.000000
  70
    32
  0
VERTEX
  8
0
  5
610
 10
3206.59
 20
1834.52
 30
0.000000
  70
    32
  0
VERTEX
  8
0
  5
611
 10
3206.53
 20
1834.50
 30
0.000000
  70
    32
  0
VERTEX
  8
0
  5
612
 10
3206.47
 20
1834.49
 30
0.000000
  70
    32
  0
VERTEX
  8
0
  5
613
 10
3206.41
 20
1834.48
 30
0.000000
  70
    32
  0
VERTEX
  8
0
  5
614
 10
3206.35
 20
1834.47
 30
0.000000
  70
    32
  0
VERTEX
  8
0
  5
615
 10
3206.29
 20
1834.46
 30
0.000000
  70
    32
  0
VERTEX
  8
0
  5
616
 10
3206.23
 20
1834.46
 30
0.000000
  70
    32
  0
VERTEX
  8
0
  5
617
 10
3206.17
 20
1834.45
 30
0.000000
  70
    32
  0
VERTEX
  8
0
  5
618
 10
3206.11
 20
1834.44
 30
0.000000
  70
    32
  0
VERTEX
  8
0
  5
619
 10
3206.05
 20
1834.43
 30
0.000000
  70
    32
  0
VERTEX
  8
0
  5
61A
 10
3205.99
 20
1834.42
 30
0.000000
  70
    32
  0
VERTEX
  8
0
  5
61B
 10
3205.93
 20
1834.41
 30
0.000000
  70
    32
  0
VERTEX
  8
0
  5
61C
 10
3205.87
 20
1834.40
 30
0.000000
  70
    32
  0
VERTEX
  8
0
  5
61D
 10
3205.81
 20
1834.39
 30
0.000000
  70
    32
  0
VERTEX
  8
0
  5
61E
 10
3205.75
 20
1834.38
 30
0.000000
  70
    32
  0
VERTEX
  8
0
  5
61F
 10
3205.69
 20
1834.38
 30
0.000000
  70
    32
  0
VERTEX
  8
0
  5
620
 10
3205.63
 20
1834.37
 30
0.000000
  70
    32
  0
VERTEX
  8
0
  5
621
 10
3205.57
 20
1834.36
 30
0.000000
  70
    32
  0
VERTEX
  8
0
  5
622
 10
3205.51
 20
1834.35
 30
0.000000
  70
    32
  0
VERTEX
  8
0
  5
623
 10
3205.45
 20
1834.35
 30
0.000000
  70
    32
  0
VERTEX
  8
0
  5
624
 10
3205.39
 20
1834.34
 30
0.000000
  70
    32
  0
VERTEX
  8
0
  5
625
 10
3205.33
 20
1834.33
 30
0.000000
  70
    32
  0
VERTEX
  8
0
  5
626
 10
3205.27
 20
1834.32
 30
0.000000
  70
    32
  0
VERTEX
  8
0
  5
627
 10
3205.20
 20
1834.32
 30
0.000000
  70
    32
  0
VERTEX
  8
0
  5
628
 10
3205.14
 20
1834.31
 30
0.000000
  70
    32
  0
VERTEX
  8
0
  5
629
 10
3205.08
 20
1834.30
 30
0.000000
  70
    32
  0
VERTEX
  8
0
  5
62A
 10
3205.02
 20
1834.30
 30
0.000000
  70
    32
  0
VERTEX
  8
0
  5
62B
 10
3204.96
 20
1834.29
 30
0.000000
  70
    32
  0
VERTEX
  8
0
  5
62C
 10
3204.90
 20
1834.28
 30
0.000000
  70
    32
  0
VERTEX
  8
0
  5
62D
 10
3204.84
 20
1834.28
 30
0.000000
  70
    32
  0
VERTEX
  8
0
  5
62E
 10
3204.78
 20
1834.27
 30
0.000000
  70
    32
  0
VERTEX
  8
0
  5
62F
 10
3204.72
 20
1834.27
 30
0.000000
  70
    32
  0
VERTEX
  8
0
  5
630
 10
3204.66
 20
1834.26
 30
0.000000
  70
    32
  0
VERTEX
  8
0
  5
631
 10
3204.60
 20
1834.26
 30
0.000000
  70
    32
  0
VERTEX
  8
0
  5
632
 10
3204.54
 20
1834.25
 30
0.000000
  70
    32
  0
VERTEX
  8
0
  5
633
 10
3204.48
 20
1834.25
 30
0.000000
  70
    32
  0
VERTEX
  8
0
  5
634
 10
3204.42
 20
1834.24
 30
0.000000
  70
    32
  0
VERTEX
  8
0
  5
635
 10
3204.36
 20
1834.24
 30
0.000000
  70
    32
  0
VERTEX
  8
0
  5
636
 10
3204.30
 20
1834.23
 30
0.000000
  70
    32
  0
VERTEX
  8
0
  5
637
 10
3204.24
 20
1834.23
 30
0.000000
  70
    32
  0
VERTEX
  8
0
  5
638
 10
3204.18
 20
1834.22
 30
0.000000
  70
    32
  0
VERTEX
  8
0
  5
639
 10
3204.11
 20
1834.22
 30
0.000000
  70
    32
  0
VERTEX
  8
0
  5
63A
 10
3204.05
 20
1834.22
 30
0.000000
  70
    32
  0
VERTEX
  8
0
  5
63B
 10
3203.99
 20
1834.21
 30
0.000000
  70
    32
  0
VERTEX
  8
0
  5
63C
 10
3203.93
 20
1834.21
 30
0.000000
  70
    32
  0
VERTEX
  8
0
  5
63D
 10
3203.87
 20
1834.21
 30
0.000000
  70
    32
  0
VERTEX
  8
0
  5
63E
 10
3203.81
 20
1834.20
 30
0.000000
  70
    32
  0
VERTEX
  8
0
  5
63F
 10
3203.75
 20
1834.20
 30
0.000000
  70
    32
  0
VERTEX
  8
0
  5
640
 10
3203.69
 20
1834.20
 30
0.000000
  70
    32
  0
VERTEX
  8
0
  5
641
 10
3203.63
 20
1834.19
 30
0.000000
  70
    32
  0
VERTEX
  8
0
  5
642
 10
3203.57
 20
1834.19
 30
0.000000
  70
    32
  0
VERTEX
  8
0
  5
643
 10
3203.51
 20
1834.19
 30
0.000000
  70
    32
  0
VERTEX
  8
0
  5
644
 10
3203.45
 20
1834.19
 30
0.000000
  70
    32
  0
VERTEX
  8
0
  5
645
 10
3203.39
 20
1834.18
 30
0.000000
  70
    32
  0
VERTEX
  8
0
  5
646
 10
3203.33
 20
1834.18
 30
0.000000
  70
    32
  0
VERTEX
  8
0
  5
647
 10
3203.27
 20
1834.18
 30
0.000000
  70
    32
  0
VERTEX
  8
0
  5
648
 10
3203.20
 20
1834.18
 30
0.000000
  70
    32
  0
VERTEX
  8
0
  5
649
 10
3203.14
 20
1834.18
 30
0.000000
  70
    32
  0
VERTEX
  8
0
  5
64A
 10
3203.08
 20
1834.17
 30
0.000000
  70
    32
  0
VERTEX
  8
0
  5
64B
 10
3203.02
 20
1834.17
 30
0.000000
  70
    32
  0
VERTEX
  8
0
  5
64C
 10
3202.96
 20
1834.17
 30
0.000000
  70
    32
  0
VERTEX
  8
0
  5
64D
 10
3202.90
 20
1834.17
 30
0.000000
  70
    32
  0
VERTEX
  8
0
  5
64E
 10
3202.84
 20
1834.17
 30
0.000000
  70
    32
  0
VERTEX
  8
0
  5
64F
 10
3202.78
 20
1834.17
 30
0.000000
  70
    32
  0
VERTEX
  8
0
  5
650
 10
3202.72
 20
1834.17
 30
0.000000
  70
    32
  0
VERTEX
  8
0
  5
651
 10
3202.66
 20
1834.17
 30
0.000000
  70
    32
  0
SEQEND
  8
0
  5
652
  0
POLYLINE
  8
0
  5
653
  66
     1
 10
0.000000
 20
0.000000
 30
0.000000
  70
     8
  0
VERTEX
  8
0
  5
654
 10
3211.05
 20
1858.47
 30
0.000000
  70
    32
  0
VERTEX
  8
0
  5
655
 10
3211.06
 20
1858.47
 30
0.000000
  70
    32
  0
VERTEX
  8
0
  5
656
 10
3211.08
 20
1858.47
 30
0.000000
  70
    32
  0
VERTEX
  8
0
  5
657
 10
3211.10
 20
1858.47
 30
0.000000
  70
    32
  0
VERTEX
  8
0
  5
658
 10
3211.11
 20
1858.47
 30
0.000000
  70
    32
  0
VERTEX
  8
0
  5
659
 10
3211.13
 20
1858.47
 30
0.000000
  70
    32
  0
VERTEX
  8
0
  5
65A
 10
3211.15
 20
1858.47
 30
0.000000
  70
    32
  0
VERTEX
  8
0
  5
65B
 10
3211.16
 20
1858.47
 30
0.000000
  70
    32
  0
VERTEX
  8
0
  5
65C
 10
3211.18
 20
1858.47
 30
0.000000
  70
    32
  0
VERTEX
  8
0
  5
65D
 10
3211.20
 20
1858.47
 30
0.000000
  70
    32
  0
VERTEX
  8
0
  5
65E
 10
3211.21
 20
1858.46
 30
0.000000
  70
    32
  0
VERTEX
  8
0
  5
65F
 10
3211.23
 20
1858.46
 30
0.000000
  70
    32
  0
VERTEX
  8
0
  5
660
 10
3211.25
 20
1858.46
 30
0.000000
  70
    32
  0
VERTEX
  8
0
  5
661
 10
3211.26
 20
1858.46
 30
0.000000
  70
    32
  0
VERTEX
  8
0
  5
662
 10
3211.28
 20
1858.46
 30
0.000000
  70
    32
  0
VERTEX
  8
0
  5
663
 10
3211.30
 20
1858.46
 30
0.000000
  70
    32
  0
VERTEX
  8
0
  5
664
 10
3211.31
 20
1858.46
 30
0.000000
  70
    32
  0
VERTEX
  8
0
  5
665
 10
3211.33
 20
1858.46
 30
0.000000
  70
    32
  0
VERTEX
  8
0
  5
666
 10
3211.35
 20
1858.46
 30
0.000000
  70
    32
  0
VERTEX
  8
0
  5
667
 10
3211.36
 20
1858.46
 30
0.000000
  70
    32
  0
VERTEX
  8
0
  5
668
 10
3211.38
 20
1858.46
 30
0.000000
  70
    32
  0
VERTEX
  8
0
  5
669
 10
3211.40
 20
1858.46
 30
0.000000
  70
    32
  0
VERTEX
  8
0
  5
66A
 10
3211.41
 20
1858.46
 30
0.000000
  70
    32
  0
VERTEX
  8
0
  5
66B
 10
3211.43
 20
1858.45
 30
0.000000
  70
    32
  0
VERTEX
  8
0
  5
66C
 10
3211.45
 20
1858.45
 30
0.000000
  70
    32
  0
VERTEX
  8
0
  5
66D
 10
3211.46
 20
1858.45
 30
0.000000
  70
    32
  0
VERTEX
  8
0
  5
66E
 10
3211.48
 20
1858.45
 30
0.000000
  70
    32
  0
VERTEX
  8
0
  5
66F
 10
3211.50
 20
1858.45
 30
0.000000
  70
    32
  0
VERTEX
  8
0
  5
670
 10
3211.51
 20
1858.45
 30
0.000000
  70
    32
  0
VERTEX
  8
0
  5
671
 10
3211.53
 20
1858.45
 30
0.000000
  70
    32
  0
VERTEX
  8
0
  5
672
 10
3211.55
 20
1858.45
 30
0.000000
  70
    32
  0
VERTEX
  8
0
  5
673
 10
3211.57
 20
1858.44
 30
0.000000
  70
    32
  0
VERTEX
  8
0
  5
674
 10
3211.58
 20
1858.44
 30
0.000000
  70
    32
  0
VERTEX
  8
0
  5
675
 10
3211.60
 20
1858.44
 30
0.000000
  70
    32
  0
VERTEX
  8
0
  5
676
 10
3211.62
 20
1858.44
 30
0.000000
  70
    32
  0
VERTEX
  8
0
  5
677
 10
3211.63
 20
1858.44
 30
0.000000
  70
    32
  0
VERTEX
  8
0
  5
678
 10
3211.65
 20
1858.44
 30
0.000000
  70
    32
  0
VERTEX
  8
0
  5
679
 10
3211.67
 20
1858.43
 30
0.000000
  70
    32
  0
VERTEX
  8
0
  5
67A
 10
3211.68
 20
1858.43
 30
0.000000
  70
    32
  0
VERTEX
  8
0
  5
67B
 10
3211.70
 20
1858.43
 30
0.000000
  70
    32
  0
VERTEX
  8
0
  5
67C
 10
3211.72
 20
1858.43
 30
0.000000
  70
    32
  0
VERTEX
  8
0
  5
67D
 10
3211.73
 20
1858.43
 30
0.000000
  70
    32
  0
VERTEX
  8
0
  5
67E
 10
3211.75
 20
1858.42
 30
0.000000
  70
    32
  0
VERTEX
  8
0
  5
67F
 10
3211.77
 20
1858.42
 30
0.000000
  70
    32
  0
VERTEX
  8
0
  5
680
 10
3211.78
 20
1858.42
 30
0.000000
  70
    32
  0
VERTEX
  8
0
  5
681
 10
3211.80
 20
1858.42
 30
0.000000
  70
    32
  0
VERTEX
  8
0
  5
682
 10
3211.82
 20
1858.42
 30
0.000000
  70
    32
  0
VERTEX
  8
0
  5
683
 10
3211.83
 20
1858.41
 30
0.000000
  70
    32
  0
VERTEX
  8
0
  5
684
 10
3211.85
 20
1858.41
 30
0.000000
  70
    32
  0
VERTEX
  8
0
  5
685
 10
3211.87
 20
1858.41
 30
0.000000
  70
    32
  0
VERTEX
  8
0
  5
686
 10
3211.88
 20
1858.41
 30
0.000000
  70
    32
  0
VERTEX
  8
0
  5
687
 10
3211.90
 20
1858.40
 30
0.000000
  70
    32
  0
VERTEX
  8
0
  5
688
 10
3211.92
 20
1858.40
 30
0.000000
  70
    32
  0
VERTEX
  8
0
  5
689
 10
3211.93
 20
1858.40
 30
0.000000
  70
    32
  0
VERTEX
  8
0
  5
68A
 10
3211.95
 20
1858.40
 30
0.000000
  70
    32
  0
VERTEX
  8
0
  5
68B
 10
3211.97
 20
1858.39
 30
0.000000
  70
    32
  0
VERTEX
  8
0
  5
68C
 10
3211.98
 20
1858.39
 30
0.000000
  70
    32
  0
VERTEX
  8
0
  5
68D
 10
3212.00
 20
1858.39
 30
0.000000
  70
    32
  0
VERTEX
  8
0
  5
68E
 10
3212.01
 20
1858.39
 30
0.000000
  70
    32
  0
VERTEX
  8
0
  5
68F
 10
3212.03
 20
1858.38
 30
0.000000
  70
    32
  0
VERTEX
  8
0
  5
690
 10
3212.05
 20
1858.38
 30
0.000000
  70
    32
  0
VERTEX
  8
0
  5
691
 10
3212.06
 20
1858.38
 30
0.000000
  70
    32
  0
VERTEX
  8
0
  5
692
 10
3212.08
 20
1858.37
 30
0.000000
  70
    32
  0
VERTEX
  8
0
  5
693
 10
3212.10
 20
1858.37
 30
0.000000
  70
    32
  0
VERTEX
  8
0
  5
694
 10
3212.11
 20
1858.37
 30
0.000000
  70
    32
  0
VERTEX
  8
0
  5
695
 10
3212.13
 20
1858.36
 30
0.000000
  70
    32
  0
VERTEX
  8
0
  5
696
 10
3212.15
 20
1858.36
 30
0.000000
  70
    32
  0
VERTEX
  8
0
  5
697
 10
3212.16
 20
1858.36
 30
0.000000
  70
    32
  0
VERTEX
  8
0
  5
698
 10
3212.18
 20
1858.35
 30
0.000000
  70
    32
  0
VERTEX
  8
0
  5
699
 10
3212.20
 20
1858.35
 30
0.000000
  70
    32
  0
VERTEX
  8
0
  5
69A
 10
3212.21
 20
1858.35
 30
0.000000
  70
    32
  0
VERTEX
  8
0
  5
69B
 10
3212.23
 20
1858.34
 30
0.000000
  70
    32
  0
VERTEX
  8
0
  5
69C
 10
3212.25
 20
1858.34
 30
0.000000
  70
    32
  0
VERTEX
  8
0
  5
69D
 10
3212.26
 20
1858.34
 30
0.000000
  70
    32
  0
VERTEX
  8
0
  5
69E
 10
3212.28
 20
1858.33
 30
0.000000
  70
    32
  0
VERTEX
  8
0
  5
69F
 10
3212.30
 20
1858.33
 30
0.000000
  70
    32
  0
VERTEX
  8
0
  5
6A0
 10
3212.31
 20
1858.33
 30
0.000000
  70
    32
  0
VERTEX
  8
0
  5
6A1
 10
3212.33
 20
1858.32
 30
0.000000
  70
    32
  0
VERTEX
  8
0
  5
6A2
 10
3212.34
 20
1858.32
 30
0.000000
  70
    32
  0
VERTEX
  8
0
  5
6A3
 10
3212.36
 20
1858.31
 30
0.000000
  70
    32
  0
VERTEX
  8
0
  5
6A4
 10
3212.38
 20
1858.31
 30
0.000000
  70
    32
  0
VERTEX
  8
0
  5
6A5
 10
3212.39
 20
1858.31
 30
0.000000
  70
    32
  0
VERTEX
  8
0
  5
6A6
 10
3212.41
 20
1858.30
 30
0.000000
  70
    32
  0
VERTEX
  8
0
  5
6A7
 10
3212.43
 20
1858.30
 30
0.000000
  70
    32
  0
VERTEX
  8
0
  5
6A8
 10
3212.44
 20
1858.29
 30
0.000000
  70
    32
  0
VERTEX
  8
0
  5
6A9
 10
3212.46
 20
1858.29
 30
0.000000
  70
    32
  0
VERTEX
  8
0
  5
6AA
 10
3212.47
 20
1858.29
 30
0.000000
  70
    32
  0
VERTEX
  8
0
  5
6AB
 10
3212.49
 20
1858.28
 30
0.000000
  70
    32
  0
VERTEX
  8
0
  5
6AC
 10
3212.51
 20
1858.28
 30
0.000000
  70
    32
  0
VERTEX
  8
0
  5
6AD
 10
3212.52
 20
1858.27
 30
0.000000
  70
    32
  0
VERTEX
  8
0
  5
6AE
 10
3212.54
 20
1858.27
 30
0.000000
  70
    32
  0
VERTEX
  8
0
  5
6AF
 10
3212.56
 20
1858.26
 30
0.000000
  70
    32
  0
VERTEX
  8
0
  5
6B0
 10
3212.57
 20
1858.26
 30
0.000000
  70
    32
  0
VERTEX
  8
0
  5
6B1
 10
3212.59
 20
1858.25
 30
0.000000
  70
    32
  0
VERTEX
  8
0
  5
6B2
 10
3212.60
 20
1858.25
 30
0.000000
  70
    32
  0
VERTEX
  8
0
  5
6B3
 10
3212.62
 20
1858.24
 30
0.000000
  70
    32
  0
VERTEX
  8
0
  5
6B4
 10
3212.64
 20
1858.24
 30
0.000000
  70
    32
  0
VERTEX
  8
0
  5
6B5
 10
3212.65
 20
1858.24
 30
0.000000
  70
    32
  0
VERTEX
  8
0
  5
6B6
 10
3212.67
 20
1858.23
 30
0.000000
  70
    32
  0
VERTEX
  8
0
  5
6B7
 10
3212.68
 20
1858.23
 30
0.000000
  70
    32
  0
VERTEX
  8
0
  5
6B8
 10
3212.70
 20
1858.22
 30
0.000000
  70
    32
  0
VERTEX
  8
0
  5
6B9
 10
3212.72
 20
1858.22
 30
0.000000
  70
    32
  0
VERTEX
  8
0
  5
6BA
 10
3212.73
 20
1858.21
 30
0.000000
  70
    32
  0
VERTEX
  8
0
  5
6BB
 10
3212.75
 20
1858.21
 30
0.000000
  70
    32
  0
VERTEX
  8
0
  5
6BC
 10
3212.76
 20
1858.20
 30
0.000000
  70
    32
  0
VERTEX
  8
0
  5
6BD
 10
3212.78
 20
1858.19
 30
0.000000
  70
    32
  0
VERTEX
  8
0
  5
6BE
 10
3212.80
 20
1858.19
 30
0.000000
  70
    32
  0
VERTEX
  8
0
  5
6BF
 10
3212.81
 20
1858.18
 30
0.000000
  70
    32
  0
VERTEX
  8
0
  5
6C0
 10
3212.83
 20
1858.18
 30
0.000000
  70
    32
  0
VERTEX
  8
0
  5
6C1
 10
3212.84
 20
1858.17
 30
0.000000
  70
    32
  0
VERTEX
  8
0
  5
6C2
 10
3212.86
 20
1858.17
 30
0.000000
  70
    32
  0
VERTEX
  8
0
  5
6C3
 10
3212.87
 20
1858.16
 30
0.000000
  70
    32
  0
VERTEX
  8
0
  5
6C4
 10
3212.89
 20
1858.16
 30
0.000000
  70
    32
  0
VERTEX
  8
0
  5
6C5
 10
3212.91
 20
1858.15
 30
0.000000
  70
    32
  0
VERTEX
  8
0
  5
6C6
 10
3212.92
 20
1858.14
 30
0.000000
  70
    32
  0
VERTEX
  8
0
  5
6C7
 10
3212.94
 20
1858.14
 30
0.000000
  70
    32
  0
VERTEX
  8
0
  5
6C8
 10
3212.95
 20
1858.13
 30
0.000000
  70
    32
  0
VERTEX
  8
0
  5
6C9
 10
3212.97
 20
1858.13
 30
0.000000
  70
    32
  0
VERTEX
  8
0
  5
6CA
 10
3212.98
 20
1858.12
 30
0.000000
  70
    32
  0
VERTEX
  8
0
  5
6CB
 10
3213.00
 20
1858.12
 30
0.000000
  70
    32
  0
VERTEX
  8
0
  5
6CC
 10
3213.02
 20
1858.11
 30
0.000000
  70
    32
  0
VERTEX
  8
0
  5
6CD
 10
3213.03
 20
1858.10
 30
0.000000
  70
    32
  0
VERTEX
  8
0
  5
6CE
 10
3213.05
 20
1858.10
 30
0.000000
  70
    32
  0
VERTEX
  8
0
  5
6CF
 10
3213.06
 20
1858.09
 30
0.000000
  70
    32
  0
VERTEX
  8
0
  5
6D0
 10
3213.08
 20
1858.08
 30
0.000000
  70
    32
  0
VERTEX
  8
0
  5
6D1
 10
3213.09
 20
1858.08
 30
0.000000
  70
    32
  0
VERTEX
  8
0
  5
6D2
 10
3213.11
 20
1858.07
 30
0.000000
  70
    32
  0
VERTEX
  8
0
  5
6D3
 10
3213.12
 20
1858.07
 30
0.000000
  70
    32
  0
VERTEX
  8
0
  5
6D4
 10
3213.14
 20
1858.06
 30
0.000000
  70
    32
  0
VERTEX
  8
0
  5
6D5
 10
3213.16
 20
1858.05
 30
0.000000
  70
    32
  0
VERTEX
  8
0
  5
6D6
 10
3213.17
 20
1858.05
 30
0.000000
  70
    32
  0
VERTEX
  8
0
  5
6D7
 10
3213.19
 20
1858.04
 30
0.000000
  70
    32
  0
VERTEX
  8
0
  5
6D8
 10
3213.20
 20
1858.03
 30
0.000000
  70
    32
  0
VERTEX
  8
0
  5
6D9
 10
3213.22
 20
1858.03
 30
0.000000
  70
    32
  0
VERTEX
  8
0
  5
6DA
 10
3213.23
 20
1858.02
 30
0.000000
  70
    32
  0
VERTEX
  8
0
  5
6DB
 10
3213.25
 20
1858.01
 30
0.000000
  70
    32
  0
VERTEX
  8
0
  5
6DC
 10
3213.26
 20
1858.00
 30
0.000000
  70
    32
  0
VERTEX
  8
0
  5
6DD
 10
3213.28
 20
1858.00
 30
0.000000
  70
    32
  0
VERTEX
  8
0
  5
6DE
 10
3213.29
 20
1857.99
 30
0.000000
  70
    32
  0
VERTEX
  8
0
  5
6DF
 10
3213.31
 20
1857.98
 30
0.000000
  70
    32
  0
VERTEX
  8
0
  5
6E0
 10
3213.32
 20
1857.98
 30
0.000000
  70
    32
  0
VERTEX
  8
0
  5
6E1
 10
3213.34
 20
1857.97
 30
0.000000
  70
    32
  0
VERTEX
  8
0
  5
6E2
 10
3213.35
 20
1857.96
 30
0.000000
  70
    32
  0
VERTEX
  8
0
  5
6E3
 10
3213.37
 20
1857.95
 30
0.000000
  70
    32
  0
VERTEX
  8
0
  5
6E4
 10
3213.38
 20
1857.95
 30
0.000000
  70
    32
  0
VERTEX
  8
0
  5
6E5
 10
3213.40
 20
1857.94
 30
0.000000
  70
    32
  0
VERTEX
  8
0
  5
6E6
 10
3213.41
 20
1857.93
 30
0.000000
  70
    32
  0
VERTEX
  8
0
  5
6E7
 10
3213.43
 20
1857.92
 30
0.000000
  70
    32
  0
VERTEX
  8
0
  5
6E8
 10
3213.44
 20
1857.92
 30
0.000000
  70
    32
  0
VERTEX
  8
0
  5
6E9
 10
3213.46
 20
1857.91
 30
0.000000
  70
    32
  0
VERTEX
  8
0
  5
6EA
 10
3213.47
 20
1857.90
 30
0.000000
  70
    32
  0
VERTEX
  8
0
  5
6EB
 10
3213.49
 20
1857.89
 30
0.000000
  70
    32
  0
VERTEX
  8
0
  5
6EC
 10
3213.50
 20
1857.89
 30
0.000000
  70
    32
  0
VERTEX
  8
0
  5
6ED
 10
3213.52
 20
1857.88
 30
0.000000
  70
    32
  0
VERTEX
  8
0
  5
6EE
 10
3213.53
 20
1857.87
 30
0.000000
  70
    32
  0
VERTEX
  8
0
  5
6EF
 10
3213.55
 20
1857.86
 30
0.000000
  70
    32
  0
VERTEX
  8
0
  5
6F0
 10
3213.56
 20
1857.85
 30
0.000000
  70
    32
  0
VERTEX
  8
0
  5
6F1
 10
3213.58
 20
1857.85
 30
0.000000
  70
    32
  0
VERTEX
  8
0
  5
6F2
 10
3213.59
 20
1857.84
 30
0.000000
  70
    32
  0
VERTEX
  8
0
  5
6F3
 10
3213.61
 20
1857.83
 30
0.000000
  70
    32
  0
VERTEX
  8
0
  5
6F4
 10
3213.62
 20
1857.82
 30
0.000000
  70
    32
  0
VERTEX
  8
0
  5
6F5
 10
3213.63
 20
1857.81
 30
0.000000
  70
    32
  0
VERTEX
  8
0
  5
6F6
 10
3213.65
 20
1857.80
 30
0.000000
  70
    32
  0
VERTEX
  8
0
  5
6F7
 10
3213.66
 20
1857.79
 30
0.000000
  70
    32
  0
VERTEX
  8
0
  5
6F8
 10
3213.68
 20
1857.79
 30
0.000000
  70
    32
  0
VERTEX
  8
0
  5
6F9
 10
3213.69
 20
1857.78
 30
0.000000
  70
    32
  0
VERTEX
  8
0
  5
6FA
 10
3213.71
 20
1857.77
 30
0.000000
  70
    32
  0
VERTEX
  8
0
  5
6FB
 10
3213.72
 20
1857.76
 30
0.000000
  70
    32
  0
VERTEX
  8
0
  5
6FC
 10
3213.73
 20
1857.75
 30
0.000000
  70
    32
  0
VERTEX
  8
0
  5
6FD
 10
3213.75
 20
1857.74
 30
0.000000
  70
    32
  0
VERTEX
  8
0
  5
6FE
 10
3213.76
 20
1857.73
 30
0.000000
  70
    32
  0
VERTEX
  8
0
  5
6FF
 10
3213.78
 20
1857.72
 30
0.000000
  70
    32
  0
VERTEX
  8
0
  5
700
 10
3213.79
 20
1857.72
 30
0.000000
  70
    32
  0
VERTEX
  8
0
  5
701
 10
3213.81
 20
1857.71
 30
0.000000
  70
    32
  0
VERTEX
  8
0
  5
702
 10
3213.82
 20
1857.70
 30
0.000000
  70
    32
  0
VERTEX
  8
0
  5
703
 10
3213.83
 20
1857.69
 30
0.000000
  70
    32
  0
VERTEX
  8
0
  5
704
 10
3213.85
 20
1857.68
 30
0.000000
  70
    32
  0
VERTEX
  8
0
  5
705
 10
3213.86
 20
1857.67
 30
0.000000
  70
    32
  0
VERTEX
  8
0
  5
706
 10
3213.87
 20
1857.66
 30
0.000000
  70
    32
  0
VERTEX
  8
0
  5
707
 10
3213.89
 20
1857.65
 30
0.000000
  70
    32
  0
VERTEX
  8
0
  5
708
 10
3213.90
 20
1857.64
 30
0.000000
  70
    32
  0
VERTEX
  8
0
  5
709
 10
3213.92
 20
1857.63
 30
0.000000
  70
    32
  0
VERTEX
  8
0
  5
70A
 10
3213.93
 20
1857.62
 30
0.000000
  70
    32
  0
VERTEX
  8
0
  5
70B
 10
3213.94
 20
1857.61
 30
0.000000
  70
    32
  0
VERTEX
  8
0
  5
70C
 10
3213.96
 20
1857.60
 30
0.000000
  70
    32
  0
VERTEX
  8
0
  5
70D
 10
3213.97
 20
1857.59
 30
0.000000
  70
    32
  0
VERTEX
  8
0
  5
70E
 10
3213.98
 20
1857.58
 30
0.000000
  70
    32
  0
VERTEX
  8
0
  5
70F
 10
3214.00
 20
1857.57
 30
0.000000
  70
    32
  0
VERTEX
  8
0
  5
710
 10
3214.01
 20
1857.56
 30
0.000000
  70
    32
  0
VERTEX
  8
0
  5
711
 10
3214.02
 20
1857.55
 30
0.000000
  70
    32
  0
VERTEX
  8
0
  5
712
 10
3214.04
 20
1857.54
 30
0.000000
  70
    32
  0
VERTEX
  8
0
  5
713
 10
3214.05
 20
1857.53
 30
0.000000
  70
    32
  0
VERTEX
  8
0
  5
714
 10
3214.06
 20
1857.52
 30
0.000000
  70
    32
  0
VERTEX
  8
0
  5
715
 10
3214.08
 20
1857.51
 30
0.000000
  70
    32
  0
VERTEX
  8
0
  5
716
 10
3214.09
 20
1857.50
 30
0.000000
  70
    32
  0
VERTEX
  8
0
  5
717
 10
3214.10
 20
1857.49
 30
0.000000
  70
    32
  0
VERTEX
  8
0
  5
718
 10
3214.12
 20
1857.48
 30
0.000000
  70
    32
  0
VERTEX
  8
0
  5
719
 10
3214.13
 20
1857.47
 30
0.000000
  70
    32
  0
VERTEX
  8
0
  5
71A
 10
3214.14
 20
1857.46
 30
0.000000
  70
    32
  0
VERTEX
  8
0
  5
71B
 10
3214.15
 20
1857.45
 30
0.000000
  70
    32
  0
VERTEX
  8
0
  5
71C
 10
3214.17
 20
1857.43
 30
0.000000
  70
    32
  0
VERTEX
  8
0
  5
71D
 10
3214.18
 20
1857.42
 30
0.000000
  70
    32
  0
VERTEX
  8
0
  5
71E
 10
3214.19
 20
1857.41
 30
0.000000
  70
    32
  0
VERTEX
  8
0
  5
71F
 10
3214.20
 20
1857.40
 30
0.000000
  70
    32
  0
VERTEX
  8
0
  5
720
 10
3214.22
 20
1857.39
 30
0.000000
  70
    32
  0
VERTEX
  8
0
  5
721
 10
3214.23
 20
1857.38
 30
0.000000
  70
    32
  0
VERTEX
  8
0
  5
722
 10
3214.24
 20
1857.37
 30
0.000000
  70
    32
  0
VERTEX
  8
0
  5
723
 10
3214.25
 20
1857.36
 30
0.000000
  70
    32
  0
VERTEX
  8
0
  5
724
 10
3214.27
 20
1857.34
 30
0.000000
  70
    32
  0
VERTEX
  8
0
  5
725
 10
3214.28
 20
1857.33
 30
0.000000
  70
    32
  0
VERTEX
  8
0
  5
726
 10
3214.29
 20
1857.32
 30
0.000000
  70
    32
  0
VERTEX
  8
0
  5
727
 10
3214.30
 20
1857.31
 30
0.000000
  70
    32
  0
VERTEX
  8
0
  5
728
 10
3214.32
 20
1857.30
 30
0.000000
  70
    32
  0
VERTEX
  8
0
  5
729
 10
3214.33
 20
1857.29
 30
0.000000
  70
    32
  0
VERTEX
  8
0
  5
72A
 10
3214.34
 20
1857.27
 30
0.000000
  70
    32
  0
VERTEX
  8
0
  5
72B
 10
3214.35
 20
1857.26
 30
0.000000
  70
    32
  0
VERTEX
  8
0
  5
72C
 10
3214.36
 20
1857.25
 30
0.000000
  70
    32
  0
VERTEX
  8
0
  5
72D
 10
3214.37
 20
1857.24
 30
0.000000
  70
    32
  0
VERTEX
  8
0
  5
72E
 10
3214.39
 20
1857.23
 30
0.000000
  70
    32
  0
VERTEX
  8
0
  5
72F
 10
3214.40
 20
1857.21
 30
0.000000
  70
    32
  0
VERTEX
  8
0
  5
730
 10
3214.41
 20
1857.20
 30
0.000000
  70
    32
  0
VERTEX
  8
0
  5
731
 10
3214.42
 20
1857.19
 30
0.000000
  70
    32
  0
VERTEX
  8
0
  5
732
 10
3214.43
 20
1857.18
 30
0.000000
  70
    32
  0
VERTEX
  8
0
  5
733
 10
3214.44
 20
1857.17
 30
0.000000
  70
    32
  0
VERTEX
  8
0
  5
734
 10
3214.45
 20
1857.15
 30
0.000000
  70
    32
  0
VERTEX
  8
0
  5
735
 10
3214.47
 20
1857.14
 30
0.000000
  70
    32
  0
VERTEX
  8
0
  5
736
 10
3214.48
 20
1857.13
 30
0.000000
  70
    32
  0
VERTEX
  8
0
  5
737
 10
3214.49
 20
1857.11
 30
0.000000
  70
    32
  0
VERTEX
  8
0
  5
738
 10
3214.50
 20
1857.10
 30
0.000000
  70
    32
  0
VERTEX
  8
0
  5
739
 10
3214.51
 20
1857.09
 30
0.000000
  70
    32
  0
VERTEX
  8
0
  5
73A
 10
3214.52
 20
1857.08
 30
0.000000
  70
    32
  0
VERTEX
  8
0
  5
73B
 10
3214.53
 20
1857.06
 30
0.000000
  70
    32
  0
VERTEX
  8
0
  5
73C
 10
3214.54
 20
1857.05
 30
0.000000
  70
    32
  0
VERTEX
  8
0
  5
73D
 10
3214.55
 20
1857.04
 30
0.000000
  70
    32
  0
VERTEX
  8
0
  5
73E
 10
3214.56
 20
1857.02
 30
0.000000
  70
    32
  0
VERTEX
  8
0
  5
73F
 10
3214.57
 20
1857.01
 30
0.000000
  70
    32
  0
VERTEX
  8
0
  5
740
 10
3214.58
 20
1857.00
 30
0.000000
  70
    32
  0
VERTEX
  8
0
  5
741
 10
3214.59
 20
1856.98
 30
0.000000
  70
    32
  0
VERTEX
  8
0
  5
742
 10
3214.60
 20
1856.97
 30
0.000000
  70
    32
  0
VERTEX
  8
0
  5
743
 10
3214.61
 20
1856.96
 30
0.000000
  70
    32
  0
VERTEX
  8
0
  5
744
 10
3214.62
 20
1856.94
 30
0.000000
  70
    32
  0
VERTEX
  8
0
  5
745
 10
3214.63
 20
1856.93
 30
0.000000
  70
    32
  0
VERTEX
  8
0
  5
746
 10
3214.64
 20
1856.92
 30
0.000000
  70
    32
  0
VERTEX
  8
0
  5
747
 10
3214.65
 20
1856.90
 30
0.000000
  70
    32
  0
VERTEX
  8
0
  5
748
 10
3214.66
 20
1856.89
 30
0.000000
  70
    32
  0
VERTEX
  8
0
  5
749
 10
3214.67
 20
1856.88
 30
0.000000
  70
    32
  0
VERTEX
  8
0
  5
74A
 10
3214.68
 20
1856.86
 30
0.000000
  70
    32
  0
VERTEX
  8
0
  5
74B
 10
3214.69
 20
1856.85
 30
0.000000
  70
    32
  0
VERTEX
  8
0
  5
74C
 10
3214.70
 20
1856.83
 30
0.000000
  70
    32
  0
VERTEX
  8
0
  5
74D
 10
3214.71
 20
1856.82
 30
0.000000
  70
    32
  0
VERTEX
  8
0
  5
74E
 10
3214.72
 20
1856.81
 30
0.000000
  70
    32
  0
VERTEX
  8
0
  5
74F
 10
3214.73
 20
1856.79
 30
0.000000
  70
    32
  0
VERTEX
  8
0
  5
750
 10
3214.73
 20
1856.78
 30
0.000000
  70
    32
  0
VERTEX
  8
0
  5
751
 10
3214.74
 20
1856.76
 30
0.000000
  70
    32
  0
VERTEX
  8
0
  5
752
 10
3214.75
 20
1856.75
 30
0.000000
  70
    32
  0
VERTEX
  8
0
  5
753
 10
3214.76
 20
1856.73
 30
0.000000
  70
    32
  0
VERTEX
  8
0
  5
754
 10
3214.77
 20
1856.72
 30
0.000000
  70
    32
  0
VERTEX
  8
0
  5
755
 10
3214.78
 20
1856.70
 30
0.000000
  70
    32
  0
VERTEX
  8
0
  5
756
 10
3214.78
 20
1856.69
 30
0.000000
  70
    32
  0
VERTEX
  8
0
  5
757
 10
3214.79
 20
1856.67
 30
0.000000
  70
    32
  0
VERTEX
  8
0
  5
758
 10
3214.80
 20
1856.66
 30
0.000000
  70
    32
  0
VERTEX
  8
0
  5
759
 10
3214.81
 20
1856.65
 30
0.000000
  70
    32
  0
VERTEX
  8
0
  5
75A
 10
3214.82
 20
1856.63
 30
0.000000
  70
    32
  0
VERTEX
  8
0
  5
75B
 10
3214.82
 20
1856.62
 30
0.000000
  70
    32
  0
VERTEX
  8
0
  5
75C
 10
3214.83
 20
1856.60
 30
0.000000
  70
    32
  0
VERTEX
  8
0
  5
75D
 10
3214.84
 20
1856.59
 30
0.000000
  70
    32
  0
VERTEX
  8
0
  5
75E
 10
3214.85
 20
1856.57
 30
0.000000
  70
    32
  0
VERTEX
  8
0
  5
75F
 10
3214.85
 20
1856.55
 30
0.000000
  70
    32
  0
VERTEX
  8
0
  5
760
 10
3214.86
 20
1856.54
 30
0.000000
  70
    32
  0
VERTEX
  8
0
  5
761
 10
3214.87
 20
1856.52
 30
0.000000
  70
    32
  0
VERTEX
  8
0
  5
762
 10
3214.87
 20
1856.51
 30
0.000000
  70
    32
  0
VERTEX
  8
0
  5
763
 10
3214.88
 20
1856.49
 30
0.000000
  70
    32
  0
VERTEX
  8
0
  5
764
 10
3214.89
 20
1856.48
 30
0.000000
  70
    32
  0
VERTEX
  8
0
  5
765
 10
3214.89
 20
1856.46
 30
0.000000
  70
    32
  0
VERTEX
  8
0
  5
766
 10
3214.90
 20
1856.45
 30
0.000000
  70
    32
  0
VERTEX
  8
0
  5
767
 10
3214.91
 20
1856.43
 30
0.000000
  70
    32
  0
VERTEX
  8
0
  5
768
 10
3214.91
 20
1856.42
 30
0.000000
  70
    32
  0
VERTEX
  8
0
  5
769
 10
3214.92
 20
1856.40
 30
0.000000
  70
    32
  0
VERTEX
  8
0
  5
76A
 10
3214.92
 20
1856.38
 30
0.000000
  70
    32
  0
VERTEX
  8
0
  5
76B
 10
3214.93
 20
1856.37
 30
0.000000
  70
    32
  0
VERTEX
  8
0
  5
76C
 10
3214.94
 20
1856.35
 30
0.000000
  70
    32
  0
VERTEX
  8
0
  5
76D
 10
3214.94
 20
1856.34
 30
0.000000
  70
    32
  0
VERTEX
  8
0
  5
76E
 10
3214.95
 20
1856.32
 30
0.000000
  70
    32
  0
VERTEX
  8
0
  5
76F
 10
3214.95
 20
1856.30
 30
0.000000
  70
    32
  0
VERTEX
  8
0
  5
770
 10
3214.96
 20
1856.29
 30
0.000000
  70
    32
  0
VERTEX
  8
0
  5
771
 10
3214.96
 20
1856.27
 30
0.000000
  70
    32
  0
VERTEX
  8
0
  5
772
 10
3214.97
 20
1856.26
 30
0.000000
  70
    32
  0
VERTEX
  8
0
  5
773
 10
3214.97
 20
1856.24
 30
0.000000
  70
    32
  0
VERTEX
  8
0
  5
774
 10
3214.98
 20
1856.22
 30
0.000000
  70
    32
  0
VERTEX
  8
0
  5
775
 10
3214.98
 20
1856.21
 30
0.000000
  70
    32
  0
VERTEX
  8
0
  5
776
 10
3214.98
 20
1856.19
 30
0.000000
  70
    32
  0
VERTEX
  8
0
  5
777
 10
3214.99
 20
1856.18
 30
0.000000
  70
    32
  0
VERTEX
  8
0
  5
778
 10
3214.99
 20
1856.16
 30
0.000000
  70
    32
  0
VERTEX
  8
0
  5
779
 10
3215.00
 20
1856.14
 30
0.000000
  70
    32
  0
VERTEX
  8
0
  5
77A
 10
3215.00
 20
1856.13
 30
0.000000
  70
    32
  0
VERTEX
  8
0
  5
77B
 10
3215.00
 20
1856.11
 30
0.000000
  70
    32
  0
VERTEX
  8
0
  5
77C
 10
3215.01
 20
1856.09
 30
0.000000
  70
    32
  0
VERTEX
  8
0
  5
77D
 10
3215.01
 20
1856.08
 30
0.000000
  70
    32
  0
VERTEX
  8
0
  5
77E
 10
3215.01
 20
1856.06
 30
0.000000
  70
    32
  0
VERTEX
  8
0
  5
77F
 10
3215.02
 20
1856.04
 30
0.000000
  70
    32
  0
VERTEX
  8
0
  5
780
 10
3215.02
 20
1856.03
 30
0.000000
  70
    32
  0
VERTEX
  8
0
  5
781
 10
3215.02
 20
1856.01
 30
0.000000
  70
    32
  0
VERTEX
  8
0
  5
782
 10
3215.02
 20
1855.99
 30
0.000000
  70
    32
  0
VERTEX
  8
0
  5
783
 10
3215.03
 20
1855.98
 30
0.000000
  70
    32
  0
VERTEX
  8
0
  5
784
 10
3215.03
 20
1855.96
 30
0.000000
  70
    32
  0
VERTEX
  8
0
  5
785
 10
3215.03
 20
1855.94
 30
0.000000
  70
    32
  0
VERTEX
  8
0
  5
786
 10
3215.03
 20
1855.93
 30
0.000000
  70
    32
  0
VERTEX
  8
0
  5
787
 10
3215.03
 20
1855.91
 30
0.000000
  70
    32
  0
VERTEX
  8
0
  5
788
 10
3215.04
 20
1855.89
 30
0.000000
  70
    32
  0
VERTEX
  8
0
  5
789
 10
3215.04
 20
1855.88
 30
0.000000
  70
    32
  0
VERTEX
  8
0
  5
78A
 10
3215.04
 20
1855.86
 30
0.000000
  70
    32
  0
VERTEX
  8
0
  5
78B
 10
3215.04
 20
1855.84
 30
0.000000
  70
    32
  0
VERTEX
  8
0
  5
78C
 10
3215.04
 20
1855.83
 30
0.000000
  70
    32
  0
VERTEX
  8
0
  5
78D
 10
3215.04
 20
1855.81
 30
0.000000
  70
    32
  0
VERTEX
  8
0
  5
78E
 10
3215.04
 20
1855.79
 30
0.000000
  70
    32
  0
VERTEX
  8
0
  5
78F
 10
3215.04
 20
1855.78
 30
0.000000
  70
    32
  0
VERTEX
  8
0
  5
790
 10
3215.05
 20
1855.76
 30
0.000000
  70
    32
  0
VERTEX
  8
0
  5
791
 10
3215.05
 20
1855.74
 30
0.000000
  70
    32
  0
VERTEX
  8
0
  5
792
 10
3215.05
 20
1855.73
 30
0.000000
  70
    32
  0
VERTEX
  8
0
  5
793
 10
3215.05
 20
1855.71
 30
0.000000
  70
    32
  0
SEQEND
  8
0
  5
794
  0
POLYLINE
  8
0
  5
795
  66
     1
 10
0.000000
 20
0.000000
 30
0.000000
  70
     8
  0
VERTEX
  8
0
  5
796
 10
3218.92
 20
1844.12
 30
0.000000
  70
    32
  0
VERTEX
  8
0
  5
797
 10
3218.91
 20
1844.10
 30
0.000000
  70
    32
  0
VERTEX
  8
0
  5
798
 10
3218.91
 20
1844.08
 30
0.000000
  70
    32
  0
VERTEX
  8
0
  5
799
 10
3218.91
 20
1844.06
 30
0.000000
  70
    32
  0
VERTEX
  8
0
  5
79A
 10
3218.90
 20
1844.04
 30
0.000000
  70
    32
  0
VERTEX
  8
0
  5
79B
 10
3218.90
 20
1844.02
 30
0.000000
  70
    32
  0
VERTEX
  8
0
  5
79C
 10
3218.89
 20
1844.01
 30
0.000000
  70
    32
  0
VERTEX
  8
0
  5
79D
 10
3218.89
 20
1843.99
 30
0.000000
  70
    32
  0
VERTEX
  8
0
  5
79E
 10
3218.89
 20
1843.97
 30
0.000000
  70
    32
  0
VERTEX
  8
0
  5
79F
 10
3218.88
 20
1843.95
 30
0.000000
  70
    32
  0
VERTEX
  8
0
  5
7A0
 10
3218.88
 20
1843.93
 30
0.000000
  70
    32
  0
VERTEX
  8
0
  5
7A1
 10
3218.87
 20
1843.91
 30
0.000000
  70
    32
  0
VERTEX
  8
0
  5
7A2
 10
3218.87
 20
1843.89
 30
0.000000
  70
    32
  0
VERTEX
  8
0
  5
7A3
 10
3218.87
 20
1843.87
 30
0.000000
  70
    32
  0
VERTEX
  8
0
  5
7A4
 10
3218.86
 20
1843.85
 30
0.000000
  70
    32
  0
VERTEX
  8
0
  5
7A5
 10
3218.86
 20
1843.83
 30
0.000000
  70
    32
  0
VERTEX
  8
0
  5
7A6
 10
3218.85
 20
1843.82
 30
0.000000
  70
    32
  0
VERTEX
  8
0
  5
7A7
 10
3218.85
 20
1843.80
 30
0.000000
  70
    32
  0
VERTEX
  8
0
  5
7A8
 10
3218.85
 20
1843.78
 30
0.000000
  70
    32
  0
VERTEX
  8
0
  5
7A9
 10
3218.84
 20
1843.76
 30
0.000000
  70
    32
  0
VERTEX
  8
0
  5
7AA
 10
3218.84
 20
1843.74
 30
0.000000
  70
    32
  0
VERTEX
  8
0
  5
7AB
 10
3218.83
 20
1843.72
 30
0.000000
  70
    32
  0
VERTEX
  8
0
  5
7AC
 10
3218.83
 20
1843.70
 30
0.000000
  70
    32
  0
VERTEX
  8
0
  5
7AD
 10
3218.82
 20
1843.68
 30
0.000000
  70
    32
  0
VERTEX
  8
0
  5
7AE
 10
3218.82
 20
1843.66
 30
0.000000
  70
    32
  0
VERTEX
  8
0
  5
7AF
 10
3218.81
 20
1843.65
 30
0.000000
  70
    32
  0
VERTEX
  8
0
  5
7B0
 10
3218.81
 20
1843.63
 30
0.000000
  70
    32
  0
VERTEX
  8
0
  5
7B1
 10
3218.80
 20
1843.61
 30
0.000000
  70
    32
  0
VERTEX
  8
0
  5
7B2
 10
3218.80
 20
1843.59
 30
0.000000
  70
    32
  0
VERTEX
  8
0
  5
7B3
 10
3218.80
 20
1843.57
 30
0.000000
  70
    32
  0
VERTEX
  8
0
  5
7B4
 10
3218.79
 20
1843.55
 30
0.000000
  70
    32
  0
VERTEX
  8
0
  5
7B5
 10
3218.79
 20
1843.53
 30
0.000000
  70
    32
  0
VERTEX
  8
0
  5
7B6
 10
3218.78
 20
1843.51
 30
0.000000
  70
    32
  0
VERTEX
  8
0
  5
7B7
 10
3218.78
 20
1843.50
 30
0.000000
  70
    32
  0
VERTEX
  8
0
  5
7B8
 10
3218.77
 20
1843.48
 30
0.000000
  70
    32
  0
VERTEX
  8
0
  5
7B9
 10
3218.77
 20
1843.46
 30
0.000000
  70
    32
  0
VERTEX
  8
0
  5
7BA
 10
3218.76
 20
1843.44
 30
0.000000
  70
    32
  0
VERTEX
  8
0
  5
7BB
 10
3218.76
 20
1843.42
 30
0.000000
  70
    32
  0
VERTEX
  8
0
  5
7BC
 10
3218.75
 20
1843.40
 30
0.000000
  70
    32
  0
VERTEX
  8
0
  5
7BD
 10
3218.74
 20
1843.38
 30
0.000000
  70
    32
  0
VERTEX
  8
0
  5
7BE
 10
3218.74
 20
1843.36
 30
0.000000
  70
    32
  0
VERTEX
  8
0
  5
7BF
 10
3218.73
 20
1843.35
 30
0.000000
  70
    32
  0
VERTEX
  8
0
  5
7C0
 10
3218.73
 20
1843.33
 30
0.000000
  70
    32
  0
VERTEX
  8
0
  5
7C1
 10
3218.72
 20
1843.31
 30
0.000000
  70
    32
  0
VERTEX
  8
0
  5
7C2
 10
3218.72
 20
1843.29
 30
0.000000
  70
    32
  0
VERTEX
  8
0
  5
7C3
 10
3218.71
 20
1843.27
 30
0.000000
  70
    32
  0
VERTEX
  8
0
  5
7C4
 10
3218.71
 20
1843.25
 30
0.000000
  70
    32
  0
VERTEX
  8
0
  5
7C5
 10
3218.70
 20
1843.23
 30
0.000000
  70
    32
  0
VERTEX
  8
0
  5
7C6
 10
3218.70
 20
1843.21
 30
0.000000
  70
    32
  0
VERTEX
  8
0
  5
7C7
 10
3218.69
 20
1843.20
 30
0.000000
  70
    32
  0
VERTEX
  8
0
  5
7C8
 10
3218.68
 20
1843.18
 30
0.000000
  70
    32
  0
VERTEX
  8
0
  5
7C9
 10
3218.68
 20
1843.16
 30
0.000000
  70
    32
  0
VERTEX
  8
0
  5
7CA
 10
3218.67
 20
1843.14
 30
0.000000
  70
    32
  0
VERTEX
  8
0
  5
7CB
 10
3218.67
 20
1843.12
 30
0.000000
  70
    32
  0
VERTEX
  8
0
  5
7CC
 10
3218.66
 20
1843.10
 30
0.000000
  70
    32
  0
VERTEX
  8
0
  5
7CD
 10
3218.66
 20
1843.08
 30
0.000000
  70
    32
  0
VERTEX
  8
0
  5
7CE
 10
3218.65
 20
1843.07
 30
0.000000
  70
    32
  0
VERTEX
  8
0
  5
7CF
 10
3218.64
 20
1843.05
 30
0.000000
  70
    32
  0
VERTEX
  8
0
  5
7D0
 10
3218.64
 20
1843.03
 30
0.000000
  70
    32
  0
VERTEX
  8
0
  5
7D1
 10
3218.63
 20
1843.01
 30
0.000000
  70
    32
  0
VERTEX
  8
0
  5
7D2
 10
3218.63
 20
1842.99
 30
0.000000
  70
    32
  0
VERTEX
  8
0
  5
7D3
 10
3218.62
 20
1842.97
 30
0.000000
  70
    32
  0
VERTEX
  8
0
  5
7D4
 10
3218.61
 20
1842.96
 30
0.000000
  70
    32
  0
VERTEX
  8
0
  5
7D5
 10
3218.61
 20
1842.94
 30
0.000000
  70
    32
  0
VERTEX
  8
0
  5
7D6
 10
3218.60
 20
1842.92
 30
0.000000
  70
    32
  0
VERTEX
  8
0
  5
7D7
 10
3218.59
 20
1842.90
 30
0.000000
  70
    32
  0
VERTEX
  8
0
  5
7D8
 10
3218.59
 20
1842.88
 30
0.000000
  70
    32
  0
VERTEX
  8
0
  5
7D9
 10
3218.58
 20
1842.86
 30
0.000000
  70
    32
  0
VERTEX
  8
0
  5
7DA
 10
3218.57
 20
1842.85
 30
0.000000
  70
    32
  0
VERTEX
  8
0
  5
7DB
 10
3218.57
 20
1842.83
 30
0.000000
  70
    32
  0
VERTEX
  8
0
  5
7DC
 10
3218.56
 20
1842.81
 30
0.000000
  70
    32
  0
VERTEX
  8
0
  5
7DD
 10
3218.56
 20
1842.79
 30
0.000000
  70
    32
  0
VERTEX
  8
0
  5
7DE
 10
3218.55
 20
1842.77
 30
0.000000
  70
    32
  0
VERTEX
  8
0
  5
7DF
 10
3218.54
 20
1842.75
 30
0.000000
  70
    32
  0
VERTEX
  8
0
  5
7E0
 10
3218.54
 20
1842.74
 30
0.000000
  70
    32
  0
VERTEX
  8
0
  5
7E1
 10
3218.53
 20
1842.72
 30
0.000000
  70
    32
  0
VERTEX
  8
0
  5
7E2
 10
3218.52
 20
1842.70
 30
0.000000
  70
    32
  0
VERTEX
  8
0
  5
7E3
 10
3218.51
 20
1842.68
 30
0.000000
  70
    32
  0
VERTEX
  8
0
  5
7E4
 10
3218.51
 20
1842.66
 30
0.000000
  70
    32
  0
VERTEX
  8
0
  5
7E5
 10
3218.50
 20
1842.64
 30
0.000000
  70
    32
  0
VERTEX
  8
0
  5
7E6
 10
3218.49
 20
1842.63
 30
0.000000
  70
    32
  0
VERTEX
  8
0
  5
7E7
 10
3218.49
 20
1842.61
 30
0.000000
  70
    32
  0
VERTEX
  8
0
  5
7E8
 10
3218.48
 20
1842.59
 30
0.000000
  70
    32
  0
VERTEX
  8
0
  5
7E9
 10
3218.47
 20
1842.57
 30
0.000000
  70
    32
  0
VERTEX
  8
0
  5
7EA
 10
3218.47
 20
1842.55
 30
0.000000
  70
    32
  0
VERTEX
  8
0
  5
7EB
 10
3218.46
 20
1842.54
 30
0.000000
  70
    32
  0
VERTEX
  8
0
  5
7EC
 10
3218.45
 20
1842.52
 30
0.000000
  70
    32
  0
VERTEX
  8
0
  5
7ED
 10
3218.44
 20
1842.50
 30
0.000000
  70
    32
  0
VERTEX
  8
0
  5
7EE
 10
3218.44
 20
1842.48
 30
0.000000
  70
    32
  0
VERTEX
  8
0
  5
7EF
 10
3218.43
 20
1842.46
 30
0.000000
  70
    32
  0
VERTEX
  8
0
  5
7F0
 10
3218.42
 20
1842.45
 30
0.000000
  70
    32
  0
VERTEX
  8
0
  5
7F1
 10
3218.41
 20
1842.43
 30
0.000000
  70
    32
  0
VERTEX
  8
0
  5
7F2
 10
3218.41
 20
1842.41
 30
0.000000
  70
    32
  0
VERTEX
  8
0
  5
7F3
 10
3218.40
 20
1842.39
 30
0.000000
  70
    32
  0
VERTEX
  8
0
  5
7F4
 10
3218.39
 20
1842.37
 30
0.000000
  70
    32
  0
VERTEX
  8
0
  5
7F5
 10
3218.38
 20
1842.36
 30
0.000000
  70
    32
  0
VERTEX
  8
0
  5
7F6
 10
3218.38
 20
1842.34
 30
0.000000
  70
    32
  0
VERTEX
  8
0
  5
7F7
 10
3218.37
 20
1842.32
 30
0.000000
  70
    32
  0
VERTEX
  8
0
  5
7F8
 10
3218.36
 20
1842.30
 30
0.000000
  70
    32
  0
VERTEX
  8
0
  5
7F9
 10
3218.35
 20
1842.28
 30
0.000000
  70
    32
  0
VERTEX
  8
0
  5
7FA
 10
3218.35
 20
1842.27
 30
0.000000
  70
    32
  0
VERTEX
  8
0
  5
7FB
 10
3218.34
 20
1842.25
 30
0.000000
  70
    32
  0
VERTEX
  8
0
  5
7FC
 10
3218.33
 20
1842.23
 30
0.000000
  70
    32
  0
VERTEX
  8
0
  5
7FD
 10
3218.32
 20
1842.21
 30
0.000000
  70
    32
  0
VERTEX
  8
0
  5
7FE
 10
3218.32
 20
1842.20
 30
0.000000
  70
    32
  0
VERTEX
  8
0
  5
7FF
 10
3218.31
 20
1842.18
 30
0.000000
  70
    32
  0
VERTEX
  8
0
  5
800
 10
3218.30
 20
1842.16
 30
0.000000
  70
    32
  0
VERTEX
  8
0
  5
801
 10
3218.29
 20
1842.14
 30
0.000000
  70
    32
  0
VERTEX
  8
0
  5
802
 10
3218.28
 20
1842.12
 30
0.000000
  70
    32
  0
VERTEX
  8
0
  5
803
 10
3218.28
 20
1842.11
 30
0.000000
  70
    32
  0
VERTEX
  8
0
  5
804
 10
3218.27
 20
1842.09
 30
0.000000
  70
    32
  0
VERTEX
  8
0
  5
805
 10
3218.26
 20
1842.07
 30
0.000000
  70
    32
  0
VERTEX
  8
0
  5
806
 10
3218.25
 20
1842.05
 30
0.000000
  70
    32
  0
VERTEX
  8
0
  5
807
 10
3218.24
 20
1842.04
 30
0.000000
  70
    32
  0
VERTEX
  8
0
  5
808
 10
3218.23
 20
1842.02
 30
0.000000
  70
    32
  0
VERTEX
  8
0
  5
809
 10
3218.23
 20
1842.00
 30
0.000000
  70
    32
  0
VERTEX
  8
0
  5
80A
 10
3218.22
 20
1841.98
 30
0.000000
  70
    32
  0
VERTEX
  8
0
  5
80B
 10
3218.21
 20
1841.97
 30
0.000000
  70
    32
  0
VERTEX
  8
0
  5
80C
 10
3218.20
 20
1841.95
 30
0.000000
  70
    32
  0
VERTEX
  8
0
  5
80D
 10
3218.19
 20
1841.93
 30
0.000000
  70
    32
  0
VERTEX
  8
0
  5
80E
 10
3218.18
 20
1841.91
 30
0.000000
  70
    32
  0
VERTEX
  8
0
  5
80F
 10
3218.18
 20
1841.90
 30
0.000000
  70
    32
  0
VERTEX
  8
0
  5
810
 10
3218.17
 20
1841.88
 30
0.000000
  70
    32
  0
VERTEX
  8
0
  5
811
 10
3218.16
 20
1841.86
 30
0.000000
  70
    32
  0
VERTEX
  8
0
  5
812
 10
3218.15
 20
1841.84
 30
0.000000
  70
    32
  0
VERTEX
  8
0
  5
813
 10
3218.14
 20
1841.83
 30
0.000000
  70
    32
  0
VERTEX
  8
0
  5
814
 10
3218.13
 20
1841.81
 30
0.000000
  70
    32
  0
VERTEX
  8
0
  5
815
 10
3218.12
 20
1841.79
 30
0.000000
  70
    32
  0
VERTEX
  8
0
  5
816
 10
3218.11
 20
1841.77
 30
0.000000
  70
    32
  0
VERTEX
  8
0
  5
817
 10
3218.11
 20
1841.76
 30
0.000000
  70
    32
  0
VERTEX
  8
0
  5
818
 10
3218.10
 20
1841.74
 30
0.000000
  70
    32
  0
VERTEX
  8
0
  5
819
 10
3218.09
 20
1841.72
 30
0.000000
  70
    32
  0
VERTEX
  8
0
  5
81A
 10
3218.08
 20
1841.71
 30
0.000000
  70
    32
  0
VERTEX
  8
0
  5
81B
 10
3218.07
 20
1841.69
 30
0.000000
  70
    32
  0
VERTEX
  8
0
  5
81C
 10
3218.06
 20
1841.67
 30
0.000000
  70
    32
  0
VERTEX
  8
0
  5
81D
 10
3218.05
 20
1841.65
 30
0.000000
  70
    32
  0
VERTEX
  8
0
  5
81E
 10
3218.04
 20
1841.64
 30
0.000000
  70
    32
  0
VERTEX
  8
0
  5
81F
 10
3218.03
 20
1841.62
 30
0.000000
  70
    32
  0
VERTEX
  8
0
  5
820
 10
3218.02
 20
1841.60
 30
0.000000
  70
    32
  0
VERTEX
  8
0
  5
821
 10
3218.02
 20
1841.59
 30
0.000000
  70
    32
  0
VERTEX
  8
0
  5
822
 10
3218.01
 20
1841.57
 30
0.000000
  70
    32
  0
VERTEX
  8
0
  5
823
 10
3218.00
 20
1841.55
 30
0.000000
  70
    32
  0
VERTEX
  8
0
  5
824
 10
3217.99
 20
1841.53
 30
0.000000
  70
    32
  0
VERTEX
  8
0
  5
825
 10
3217.98
 20
1841.52
 30
0.000000
  70
    32
  0
VERTEX
  8
0
  5
826
 10
3217.97
 20
1841.50
 30
0.000000
  70
    32
  0
VERTEX
  8
0
  5
827
 10
3217.96
 20
1841.48
 30
0.000000
  70
    32
  0
VERTEX
  8
0
  5
828
 10
3217.95
 20
1841.47
 30
0.000000
  70
    32
  0
VERTEX
  8
0
  5
829
 10
3217.94
 20
1841.45
 30
0.000000
  70
    32
  0
VERTEX
  8
0
  5
82A
 10
3217.93
 20
1841.43
 30
0.000000
  70
    32
  0
VERTEX
  8
0
  5
82B
 10
3217.92
 20
1841.42
 30
0.000000
  70
    32
  0
VERTEX
  8
0
  5
82C
 10
3217.91
 20
1841.40
 30
0.000000
  70
    32
  0
VERTEX
  8
0
  5
82D
 10
3217.90
 20
1841.38
 30
0.000000
  70
    32
  0
VERTEX
  8
0
  5
82E
 10
3217.89
 20
1841.36
 30
0.000000
  70
    32
  0
VERTEX
  8
0
  5
82F
 10
3217.88
 20
1841.35
 30
0.000000
  70
    32
  0
VERTEX
  8
0
  5
830
 10
3217.87
 20
1841.33
 30
0.000000
  70
    32
  0
VERTEX
  8
0
  5
831
 10
3217.86
 20
1841.31
 30
0.000000
  70
    32
  0
VERTEX
  8
0
  5
832
 10
3217.85
 20
1841.30
 30
0.000000
  70
    32
  0
VERTEX
  8
0
  5
833
 10
3217.84
 20
1841.28
 30
0.000000
  70
    32
  0
VERTEX
  8
0
  5
834
 10
3217.83
 20
1841.26
 30
0.000000
  70
    32
  0
VERTEX
  8
0
  5
835
 10
3217.82
 20
1841.25
 30
0.000000
  70
    32
  0
SEQEND
  8
0
  5
836
  0
POLYLINE
  5
2F8
  8
0
 66
     1
 10
0.0
 20
0.0
 30
0.0
  0
VERTEX
  5
3B1
  8
0
 10
3202.4454581520058
 20
1806.7654891704251
 30
0.0
  0
VERTEX
  5
3B2
  8
0
 10
3201.9537725958262
 20
1806.7708057494251
 30
0.0
  0
VERTEX
  5
3B3
  8
0
 10
3201.3310050459759
 20
1806.7925773982249
 30
0.0
  0
VERTEX
  5
3B4
  8
0
 10
3200.7163592065958
 20
1806.830723725805
 30
0.0
  0
VERTEX
  5
3B5
  8
0
 10
3200.1139996169859
 20
1806.884604132985
 30
0.0
  0
VERTEX
  5
3B6
  8
0
 10
3199.5234414035758
 20
1806.9540075884049
 30
0.0
  0
VERTEX
  5
3B7
  8
0
 10
3198.9396368993862
 20
1807.039588329465
 30
0.0
  0
VERTEX
  5
3B8
  8
0
 10
3198.3636435142962
 20
1807.1415217362351
 30
0.0
  0
VERTEX
  5
3B9
  8
0
 10
3197.7984645926858
 20
1807.259698434485
 30
0.0
  0
VERTEX
  5
3BA
  8
0
 10
3197.2424408360562
 20
1807.395231155125
 30
0.0
  0
VERTEX
  5
3BB
  8
0
 10
3196.694468437966
 20
1807.549645449425
 30
0.0
  0
VERTEX
  5
3BC
  8
0
 10
3196.1610938007361
 20
1807.7223819282949
 30
0.0
  0
VERTEX
  5
3BD
  8
0
 10
3195.6510285281961
 20
1807.9113132945749
 30
0.0
  0
VERTEX
  5
3BE
  8
0
 10
3195.1650097567258
 20
1808.116756871605
 30
0.0
  0
VERTEX
  5
3BF
  8
0
 10
3194.7055774373762
 20
1808.338398458525
 30
0.0
  0
VERTEX
  5
3C0
  8
0
 10
3194.2808627114159
 20
1808.572243610545
 30
0.0
  0
VERTEX
  5
3C1
  8
0
 10
3193.8915120348061
 20
1808.8169071186851
 30
0.0
  0
VERTEX
  5
3C2
  8
0
 10
3193.5356402316561
 20
1809.0728910773951
 30
0.0
  0
VERTEX
  5
3C3
  8
0
 10
3193.2149271647259
 20
1809.3385387620849
 30
0.0
  0
VERTEX
  5
3C4
  8
0
 10
3192.9293390881562
 20
1809.612969222155
 30
0.0
  0
VERTEX
  5
3C5
  8
0
 10
3192.6775500053359
 20
1809.8963814101739
 30
0.0
  0
VERTEX
  5
3C6
  8
0
 10
3192.4589268925561
 20
1810.188593290135
 30
0.0
  0
VERTEX
  5
3C7
  8
0
 10
3192.2730559936858
 20
1810.489551044275
 30
0.0
  0
SEQEND
  5
3C8
  8
0
  0
LINE
  5
2F9
  8
0
 10
3202.545758699936
 20
1806.7654813430149
 30
0.0
 11
3202.4454581440659
 21
1806.7654889642449
 31
0.0
  0
LINE
  5
2FA
  8
0
 10
3190.045758699936
 20
1855.710078624905
 30
0.0
 11
3190.045758699936
 21
1845.5415203652849
 31
0.0
  0
LINE
  5
2FB
  8
0
 10
3191.881807678506
 20
1811.621948798155
 30
0.0
 11
3191.8809096536461
 21
1811.6280297870151
 31
0.0
  0
LINE
  5
2FC
  8
0
 10
3191.8818083884162
 20
1811.6219440484449
 30
0.0
 11
3191.5775202992759
 21
1813.6337052077649
 31
0.0
  0
LINE
  5
2FD
  8
0
 10
3191.5775202992759
 20
1813.6337052077649
 30
0.0
 11
3191.296430384305
 21
1815.451581715985
 31
0.0
  0
LINE
  5
2FE
  8
0
 10
3191.296430384305
 20
1815.451581715985
 30
0.0
 11
3191.295374769496
 21
1815.4583396377941
 31
0.0
  0
LINE
  5
2FF
  8
0
 10
3191.295374769496
 20
1815.4583396377941
 30
0.0
 11
3191.0934881505959
 21
1816.720083904695
 31
0.0
  0
LINE
  5
300
  8
0
 10
3191.0934881505959
 20
1816.720083904695
 30
0.0
 11
3190.8363214340761
 21
1818.2649203809549
 31
0.0
  0
LINE
  5
301
  8
0
 10
3186.045758699936
 20
1862.668996502905
 30
0.0
 11
3186.045758699936
 21
1845.5415203652849
 31
0.0
  0
LINE
  5
302
  8
0
 10
3190.8363214340761
 20
1818.2649203809549
 30
0.0
 11
3190.567847290376
 21
1819.832446108795
 31
0.0
  0
LINE
  5
303
  8
0
 10
3190.567847290376
 20
1819.832446108795
 30
0.0
 11
3190.1407836274061
 21
1822.2708655957049
 31
0.0
  0
LINE
  5
304
  8
0
 10
3190.1407836274061
 20
1822.2708655957049
 30
0.0
 11
3189.675517619416
 21
1824.8836031758151
 31
0.0
  0
LINE
  5
305
  8
0
 10
3189.675517619416
 20
1824.8836031758151
 30
0.0
 11
3188.9786635620362
 21
1828.751855468485
 31
0.0
  0
LINE
  5
306
  8
0
 10
3188.9786635620362
 20
1828.751855468485
 30
0.0
 11
3188.0058756984358
 21
1834.106521976325
 31
0.0
  0
LINE
  5
307
  8
0
 10
3188.0058756984358
 20
1834.106521976325
 30
0.0
 11
3186.175636518406
 21
1844.1203266165451
 31
0.0
  0
LINE
  5
308
  8
0
 10
3202.545758699936
 20
1858.4672049579051
 30
0.0
 11
3194.045758699936
 21
1858.4672049579051
 31
0.0
  0
POLYLINE
  5
309
  8
0
 66
     1
 10
0.0
 20
0.0
 30
0.0
  0
VERTEX
  5
3C9
  8
0
 10
3192.2730559936858
 20
1810.489551044275
 30
0.0
  0
VERTEX
  5
3CA
  8
0
 10
3192.1204064932658
 20
1810.798059294405
 30
0.0
  0
VERTEX
  5
3CB
  8
0
 10
3192.0018204489861
 20
1811.1112986313749
 30
0.0
  0
VERTEX
  5
3CC
  8
0
 10
3191.917260760466
 20
1811.4268934868451
 30
0.0
  0
VERTEX
  5
3CD
  8
0
 10
3191.880915497456
 20
1811.627997468735
 30
0.0
  0
SEQEND
  5
3CE
  8
0
  0
LINE
  5
30A
  8
0
 10
3202.545758699936
 20
1862.668996502905
 30
0.0
 11
3186.045758699936
 21
1862.668996502905
 31
0.0
  0
ARC
  5
30B
  8
0
 10
3202.5462549098261
 20
1858.1060820306441
 30
0.0
 40
23.937710124460001
 50
269.72988138552847
 51
269.9988123036203
  0
ARC
  5
30C
  8
0
 10
3193.954476763306
 20
1845.547738440295
 30
0.0
 40
7.90872050779
 50
180.04504767750379
 51
190.39805811710241
  0
ARC
  5
30D
  8
0
 10
3195.9524245266462
 20
1845.542337210275
 30
0.0
 40
5.9066658831899987
 50
180.0079235512471
 51
187.11482581326271
  0
ARC
  5
30E
  8
0
 10
3202.545758699936
 20
1849.168996502905
 30
0.0
 40
1.0
 50
90.0
 51
270.0
  0
POLYLINE
  8
0
  5
837
  66
     1
 10
0.000000
 20
0.000000
 30
0.000000
  70
     8
  0
VERTEX
  8
0
  5
838
 10
3190.09
 20
1844.81
 30
0.000000
  70
    32
  0
VERTEX
  8
0
  5
839
 10
3190.10
 20
1844.77
 30
0.000000
  70
    32
  0
VERTEX
  8
0
  5
83A
 10
3190.10
 20
1844.72
 30
0.000000
  70
    32
  0
VERTEX
  8
0
  5
83B
 10
3190.11
 20
1844.68
 30
0.000000
  70
    32
  0
VERTEX
  8
0
  5
83C
 10
3190.12
 20
1844.63
 30
0.000000
  70
    32
  0
VERTEX
  8
0
  5
83D
 10
3190.12
 20
1844.59
 30
0.000000
  70
    32
  0
VERTEX
  8
0
  5
83E
 10
3190.13
 20
1844.54
 30
0.000000
  70
    32
  0
VERTEX
  8
0
  5
83F
 10
3190.14
 20
1844.50
 30
0.000000
  70
    32
  0
VERTEX
  8
0
  5
840
 10
3190.15
 20
1844.45
 30
0.000000
  70
    32
  0
VERTEX
  8
0
  5
841
 10
3190.16
 20
1844.41
 30
0.000000
  70
    32
  0
VERTEX
  8
0
  5
842
 10
3190.16
 20
1844.36
 30
0.000000
  70
    32
  0
VERTEX
  8
0
  5
843
 10
3190.17
 20
1844.32
 30
0.000000
  70
    32
  0
VERTEX
  8
0
  5
844
 10
3190.18
 20
1844.27
 30
0.000000
  70
    32
  0
VERTEX
  8
0
  5
845
 10
3190.19
 20
1844.23
 30
0.000000
  70
    32
  0
VERTEX
  8
0
  5
846
 10
3190.20
 20
1844.18
 30
0.000000
  70
    32
  0
VERTEX
  8
0
  5
847
 10
3190.21
 20
1844.14
 30
0.000000
  70
    32
  0
VERTEX
  8
0
  5
848
 10
3190.22
 20
1844.09
 30
0.000000
  70
    32
  0
VERTEX
  8
0
  5
849
 10
3190.24
 20
1844.05
 30
0.000000
  70
    32
  0
VERTEX
  8
0
  5
84A
 10
3190.25
 20
1844.01
 30
0.000000
  70
    32
  0
VERTEX
  8
0
  5
84B
 10
3190.26
 20
1843.96
 30
0.000000
  70
    32
  0
VERTEX
  8
0
  5
84C
 10
3190.27
 20
1843.92
 30
0.000000
  70
    32
  0
VERTEX
  8
0
  5
84D
 10
3190.28
 20
1843.87
 30
0.000000
  70
    32
  0
VERTEX
  8
0
  5
84E
 10
3190.30
 20
1843.83
 30
0.000000
  70
    32
  0
VERTEX
  8
0
  5
84F
 10
3190.31
 20
1843.79
 30
0.000000
  70
    32
  0
VERTEX
  8
0
  5
850
 10
3190.32
 20
1843.74
 30
0.000000
  70
    32
  0
VERTEX
  8
0
  5
851
 10
3190.34
 20
1843.70
 30
0.000000
  70
    32
  0
VERTEX
  8
0
  5
852
 10
3190.35
 20
1843.66
 30
0.000000
  70
    32
  0
VERTEX
  8
0
  5
853
 10
3190.36
 20
1843.61
 30
0.000000
  70
    32
  0
VERTEX
  8
0
  5
854
 10
3190.38
 20
1843.57
 30
0.000000
  70
    32
  0
VERTEX
  8
0
  5
855
 10
3190.39
 20
1843.53
 30
0.000000
  70
    32
  0
VERTEX
  8
0
  5
856
 10
3190.41
 20
1843.48
 30
0.000000
  70
    32
  0
VERTEX
  8
0
  5
857
 10
3190.42
 20
1843.44
 30
0.000000
  70
    32
  0
VERTEX
  8
0
  5
858
 10
3190.44
 20
1843.40
 30
0.000000
  70
    32
  0
VERTEX
  8
0
  5
859
 10
3190.46
 20
1843.35
 30
0.000000
  70
    32
  0
VERTEX
  8
0
  5
85A
 10
3190.47
 20
1843.31
 30
0.000000
  70
    32
  0
VERTEX
  8
0
  5
85B
 10
3190.49
 20
1843.27
 30
0.000000
  70
    32
  0
VERTEX
  8
0
  5
85C
 10
3190.51
 20
1843.23
 30
0.000000
  70
    32
  0
VERTEX
  8
0
  5
85D
 10
3190.52
 20
1843.18
 30
0.000000
  70
    32
  0
VERTEX
  8
0
  5
85E
 10
3190.54
 20
1843.14
 30
0.000000
  70
    32
  0
VERTEX
  8
0
  5
85F
 10
3190.56
 20
1843.10
 30
0.000000
  70
    32
  0
VERTEX
  8
0
  5
860
 10
3190.58
 20
1843.06
 30
0.000000
  70
    32
  0
VERTEX
  8
0
  5
861
 10
3190.60
 20
1843.02
 30
0.000000
  70
    32
  0
VERTEX
  8
0
  5
862
 10
3190.61
 20
1842.97
 30
0.000000
  70
    32
  0
VERTEX
  8
0
  5
863
 10
3190.63
 20
1842.93
 30
0.000000
  70
    32
  0
VERTEX
  8
0
  5
864
 10
3190.65
 20
1842.89
 30
0.000000
  70
    32
  0
VERTEX
  8
0
  5
865
 10
3190.67
 20
1842.85
 30
0.000000
  70
    32
  0
VERTEX
  8
0
  5
866
 10
3190.69
 20
1842.81
 30
0.000000
  70
    32
  0
VERTEX
  8
0
  5
867
 10
3190.71
 20
1842.77
 30
0.000000
  70
    32
  0
VERTEX
  8
0
  5
868
 10
3190.73
 20
1842.73
 30
0.000000
  70
    32
  0
VERTEX
  8
0
  5
869
 10
3190.75
 20
1842.69
 30
0.000000
  70
    32
  0
VERTEX
  8
0
  5
86A
 10
3190.77
 20
1842.65
 30
0.000000
  70
    32
  0
VERTEX
  8
0
  5
86B
 10
3190.79
 20
1842.61
 30
0.000000
  70
    32
  0
VERTEX
  8
0
  5
86C
 10
3190.82
 20
1842.57
 30
0.000000
  70
    32
  0
VERTEX
  8
0
  5
86D
 10
3190.84
 20
1842.53
 30
0.000000
  70
    32
  0
VERTEX
  8
0
  5
86E
 10
3190.86
 20
1842.49
 30
0.000000
  70
    32
  0
VERTEX
  8
0
  5
86F
 10
3190.88
 20
1842.45
 30
0.000000
  70
    32
  0
VERTEX
  8
0
  5
870
 10
3190.90
 20
1842.41
 30
0.000000
  70
    32
  0
VERTEX
  8
0
  5
871
 10
3190.93
 20
1842.37
 30
0.000000
  70
    32
  0
VERTEX
  8
0
  5
872
 10
3190.95
 20
1842.33
 30
0.000000
  70
    32
  0
VERTEX
  8
0
  5
873
 10
3190.97
 20
1842.29
 30
0.000000
  70
    32
  0
VERTEX
  8
0
  5
874
 10
3191.00
 20
1842.25
 30
0.000000
  70
    32
  0
VERTEX
  8
0
  5
875
 10
3191.02
 20
1842.21
 30
0.000000
  70
    32
  0
VERTEX
  8
0
  5
876
 10
3191.04
 20
1842.17
 30
0.000000
  70
    32
  0
VERTEX
  8
0
  5
877
 10
3191.07
 20
1842.13
 30
0.000000
  70
    32
  0
VERTEX
  8
0
  5
878
 10
3191.09
 20
1842.09
 30
0.000000
  70
    32
  0
VERTEX
  8
0
  5
879
 10
3191.12
 20
1842.05
 30
0.000000
  70
    32
  0
VERTEX
  8
0
  5
87A
 10
3191.14
 20
1842.02
 30
0.000000
  70
    32
  0
VERTEX
  8
0
  5
87B
 10
3191.17
 20
1841.98
 30
0.000000
  70
    32
  0
VERTEX
  8
0
  5
87C
 10
3191.19
 20
1841.94
 30
0.000000
  70
    32
  0
VERTEX
  8
0
  5
87D
 10
3191.22
 20
1841.90
 30
0.000000
  70
    32
  0
VERTEX
  8
0
  5
87E
 10
3191.24
 20
1841.86
 30
0.000000
  70
    32
  0
VERTEX
  8
0
  5
87F
 10
3191.27
 20
1841.83
 30
0.000000
  70
    32
  0
VERTEX
  8
0
  5
880
 10
3191.29
 20
1841.79
 30
0.000000
  70
    32
  0
VERTEX
  8
0
  5
881
 10
3191.32
 20
1841.75
 30
0.000000
  70
    32
  0
VERTEX
  8
0
  5
882
 10
3191.35
 20
1841.72
 30
0.000000
  70
    32
  0
VERTEX
  8
0
  5
883
 10
3191.37
 20
1841.68
 30
0.000000
  70
    32
  0
VERTEX
  8
0
  5
884
 10
3191.40
 20
1841.64
 30
0.000000
  70
    32
  0
VERTEX
  8
0
  5
885
 10
3191.43
 20
1841.61
 30
0.000000
  70
    32
  0
VERTEX
  8
0
  5
886
 10
3191.45
 20
1841.57
 30
0.000000
  70
    32
  0
VERTEX
  8
0
  5
887
 10
3191.48
 20
1841.53
 30
0.000000
  70
    32
  0
VERTEX
  8
0
  5
888
 10
3191.51
 20
1841.50
 30
0.000000
  70
    32
  0
VERTEX
  8
0
  5
889
 10
3191.54
 20
1841.46
 30
0.000000
  70
    32
  0
VERTEX
  8
0
  5
88A
 10
3191.57
 20
1841.42
 30
0.000000
  70
    32
  0
VERTEX
  8
0
  5
88B
 10
3191.59
 20
1841.39
 30
0.000000
  70
    32
  0
VERTEX
  8
0
  5
88C
 10
3191.62
 20
1841.35
 30
0.000000
  70
    32
  0
VERTEX
  8
0
  5
88D
 10
3191.65
 20
1841.32
 30
0.000000
  70
    32
  0
VERTEX
  8
0
  5
88E
 10
3191.68
 20
1841.28
 30
0.000000
  70
    32
  0
VERTEX
  8
0
  5
88F
 10
3191.71
 20
1841.25
 30
0.000000
  70
    32
  0
VERTEX
  8
0
  5
890
 10
3191.74
 20
1841.21
 30
0.000000
  70
    32
  0
VERTEX
  8
0
  5
891
 10
3191.77
 20
1841.18
 30
0.000000
  70
    32
  0
VERTEX
  8
0
  5
892
 10
3191.80
 20
1841.14
 30
0.000000
  70
    32
  0
VERTEX
  8
0
  5
893
 10
3191.83
 20
1841.11
 30
0.000000
  70
    32
  0
VERTEX
  8
0
  5
894
 10
3191.86
 20
1841.07
 30
0.000000
  70
    32
  0
VERTEX
  8
0
  5
895
 10
3191.89
 20
1841.04
 30
0.000000
  70
    32
  0
VERTEX
  8
0
  5
896
 10
3191.92
 20
1841.01
 30
0.000000
  70
    32
  0
VERTEX
  8
0
  5
897
 10
3191.95
 20
1840.97
 30
0.000000
  70
    32
  0
VERTEX
  8
0
  5
898
 10
3191.98
 20
1840.94
 30
0.000000
  70
    32
  0
VERTEX
  8
0
  5
899
 10
3192.01
 20
1840.91
 30
0.000000
  70
    32
  0
VERTEX
  8
0
  5
89A
 10
3192.04
 20
1840.87
 30
0.000000
  70
    32
  0
VERTEX
  8
0
  5
89B
 10
3192.07
 20
1840.84
 30
0.000000
  70
    32
  0
VERTEX
  8
0
  5
89C
 10
3192.10
 20
1840.81
 30
0.000000
  70
    32
  0
VERTEX
  8
0
  5
89D
 10
3192.14
 20
1840.77
 30
0.000000
  70
    32
  0
VERTEX
  8
0
  5
89E
 10
3192.17
 20
1840.74
 30
0.000000
  70
    32
  0
VERTEX
  8
0
  5
89F
 10
3192.20
 20
1840.71
 30
0.000000
  70
    32
  0
VERTEX
  8
0
  5
8A0
 10
3192.23
 20
1840.68
 30
0.000000
  70
    32
  0
VERTEX
  8
0
  5
8A1
 10
3192.26
 20
1840.64
 30
0.000000
  70
    32
  0
VERTEX
  8
0
  5
8A2
 10
3192.30
 20
1840.61
 30
0.000000
  70
    32
  0
VERTEX
  8
0
  5
8A3
 10
3192.33
 20
1840.58
 30
0.000000
  70
    32
  0
VERTEX
  8
0
  5
8A4
 10
3192.36
 20
1840.55
 30
0.000000
  70
    32
  0
VERTEX
  8
0
  5
8A5
 10
3192.39
 20
1840.52
 30
0.000000
  70
    32
  0
VERTEX
  8
0
  5
8A6
 10
3192.43
 20
1840.48
 30
0.000000
  70
    32
  0
VERTEX
  8
0
  5
8A7
 10
3192.46
 20
1840.45
 30
0.000000
  70
    32
  0
VERTEX
  8
0
  5
8A8
 10
3192.49
 20
1840.42
 30
0.000000
  70
    32
  0
VERTEX
  8
0
  5
8A9
 10
3192.53
 20
1840.39
 30
0.000000
  70
    32
  0
VERTEX
  8
0
  5
8AA
 10
3192.56
 20
1840.36
 30
0.000000
  70
    32
  0
VERTEX
  8
0
  5
8AB
 10
3192.59
 20
1840.33
 30
0.000000
  70
    32
  0
VERTEX
  8
0
  5
8AC
 10
3192.63
 20
1840.30
 30
0.000000
  70
    32
  0
VERTEX
  8
0
  5
8AD
 10
3192.66
 20
1840.27
 30
0.000000
  70
    32
  0
VERTEX
  8
0
  5
8AE
 10
3192.70
 20
1840.24
 30
0.000000
  70
    32
  0
VERTEX
  8
0
  5
8AF
 10
3192.73
 20
1840.21
 30
0.000000
  70
    32
  0
VERTEX
  8
0
  5
8B0
 10
3192.76
 20
1840.18
 30
0.000000
  70
    32
  0
VERTEX
  8
0
  5
8B1
 10
3192.80
 20
1840.15
 30
0.000000
  70
    32
  0
VERTEX
  8
0
  5
8B2
 10
3192.83
 20
1840.12
 30
0.000000
  70
    32
  0
VERTEX
  8
0
  5
8B3
 10
3192.87
 20
1840.09
 30
0.000000
  70
    32
  0
VERTEX
  8
0
  5
8B4
 10
3192.90
 20
1840.06
 30
0.000000
  70
    32
  0
VERTEX
  8
0
  5
8B5
 10
3192.94
 20
1840.03
 30
0.000000
  70
    32
  0
VERTEX
  8
0
  5
8B6
 10
3192.97
 20
1840.00
 30
0.000000
  70
    32
  0
VERTEX
  8
0
  5
8B7
 10
3193.01
 20
1839.97
 30
0.000000
  70
    32
  0
VERTEX
  8
0
  5
8B8
 10
3193.04
 20
1839.94
 30
0.000000
  70
    32
  0
VERTEX
  8
0
  5
8B9
 10
3193.08
 20
1839.92
 30
0.000000
  70
    32
  0
VERTEX
  8
0
  5
8BA
 10
3193.12
 20
1839.89
 30
0.000000
  70
    32
  0
VERTEX
  8
0
  5
8BB
 10
3193.15
 20
1839.86
 30
0.000000
  70
    32
  0
VERTEX
  8
0
  5
8BC
 10
3193.19
 20
1839.83
 30
0.000000
  70
    32
  0
VERTEX
  8
0
  5
8BD
 10
3193.22
 20
1839.80
 30
0.000000
  70
    32
  0
VERTEX
  8
0
  5
8BE
 10
3193.26
 20
1839.77
 30
0.000000
  70
    32
  0
VERTEX
  8
0
  5
8BF
 10
3193.30
 20
1839.75
 30
0.000000
  70
    32
  0
VERTEX
  8
0
  5
8C0
 10
3193.33
 20
1839.72
 30
0.000000
  70
    32
  0
VERTEX
  8
0
  5
8C1
 10
3193.37
 20
1839.69
 30
0.000000
  70
    32
  0
VERTEX
  8
0
  5
8C2
 10
3193.40
 20
1839.67
 30
0.000000
  70
    32
  0
VERTEX
  8
0
  5
8C3
 10
3193.44
 20
1839.64
 30
0.000000
  70
    32
  0
VERTEX
  8
0
  5
8C4
 10
3193.48
 20
1839.61
 30
0.000000
  70
    32
  0
VERTEX
  8
0
  5
8C5
 10
3193.51
 20
1839.58
 30
0.000000
  70
    32
  0
VERTEX
  8
0
  5
8C6
 10
3193.55
 20
1839.56
 30
0.000000
  70
    32
  0
VERTEX
  8
0
  5
8C7
 10
3193.59
 20
1839.53
 30
0.000000
  70
    32
  0
VERTEX
  8
0
  5
8C8
 10
3193.63
 20
1839.51
 30
0.000000
  70
    32
  0
VERTEX
  8
0
  5
8C9
 10
3193.66
 20
1839.48
 30
0.000000
  70
    32
  0
VERTEX
  8
0
  5
8CA
 10
3193.70
 20
1839.45
 30
0.000000
  70
    32
  0
VERTEX
  8
0
  5
8CB
 10
3193.74
 20
1839.43
 30
0.000000
  70
    32
  0
VERTEX
  8
0
  5
8CC
 10
3193.78
 20
1839.40
 30
0.000000
  70
    32
  0
VERTEX
  8
0
  5
8CD
 10
3193.81
 20
1839.38
 30
0.000000
  70
    32
  0
VERTEX
  8
0
  5
8CE
 10
3193.85
 20
1839.35
 30
0.000000
  70
    32
  0
VERTEX
  8
0
  5
8CF
 10
3193.89
 20
1839.33
 30
0.000000
  70
    32
  0
VERTEX
  8
0
  5
8D0
 10
3193.93
 20
1839.30
 30
0.000000
  70
    32
  0
VERTEX
  8
0
  5
8D1
 10
3193.97
 20
1839.28
 30
0.000000
  70
    32
  0
VERTEX
  8
0
  5
8D2
 10
3194.00
 20
1839.25
 30
0.000000
  70
    32
  0
VERTEX
  8
0
  5
8D3
 10
3194.04
 20
1839.23
 30
0.000000
  70
    32
  0
VERTEX
  8
0
  5
8D4
 10
3194.08
 20
1839.20
 30
0.000000
  70
    32
  0
VERTEX
  8
0
  5
8D5
 10
3194.12
 20
1839.18
 30
0.000000
  70
    32
  0
VERTEX
  8
0
  5
8D6
 10
3194.16
 20
1839.15
 30
0.000000
  70
    32
  0
VERTEX
  8
0
  5
8D7
 10
3194.20
 20
1839.13
 30
0.000000
  70
    32
  0
VERTEX
  8
0
  5
8D8
 10
3194.24
 20
1839.11
 30
0.000000
  70
    32
  0
VERTEX
  8
0
  5
8D9
 10
3194.27
 20
1839.08
 30
0.000000
  70
    32
  0
VERTEX
  8
0
  5
8DA
 10
3194.31
 20
1839.06
 30
0.000000
  70
    32
  0
VERTEX
  8
0
  5
8DB
 10
3194.35
 20
1839.03
 30
0.000000
  70
    32
  0
VERTEX
  8
0
  5
8DC
 10
3194.39
 20
1839.01
 30
0.000000
  70
    32
  0
VERTEX
  8
0
  5
8DD
 10
3194.43
 20
1838.99
 30
0.000000
  70
    32
  0
VERTEX
  8
0
  5
8DE
 10
3194.47
 20
1838.97
 30
0.000000
  70
    32
  0
VERTEX
  8
0
  5
8DF
 10
3194.51
 20
1838.94
 30
0.000000
  70
    32
  0
VERTEX
  8
0
  5
8E0
 10
3194.55
 20
1838.92
 30
0.000000
  70
    32
  0
VERTEX
  8
0
  5
8E1
 10
3194.59
 20
1838.90
 30
0.000000
  70
    32
  0
VERTEX
  8
0
  5
8E2
 10
3194.63
 20
1838.87
 30
0.000000
  70
    32
  0
VERTEX
  8
0
  5
8E3
 10
3194.67
 20
1838.85
 30
0.000000
  70
    32
  0
VERTEX
  8
0
  5
8E4
 10
3194.71
 20
1838.83
 30
0.000000
  70
    32
  0
VERTEX
  8
0
  5
8E5
 10
3194.75
 20
1838.81
 30
0.000000
  70
    32
  0
VERTEX
  8
0
  5
8E6
 10
3194.79
 20
1838.79
 30
0.000000
  70
    32
  0
VERTEX
  8
0
  5
8E7
 10
3194.83
 20
1838.76
 30
0.000000
  70
    32
  0
VERTEX
  8
0
  5
8E8
 10
3194.87
 20
1838.74
 30
0.000000
  70
    32
  0
VERTEX
  8
0
  5
8E9
 10
3194.91
 20
1838.72
 30
0.000000
  70
    32
  0
VERTEX
  8
0
  5
8EA
 10
3194.95
 20
1838.70
 30
0.000000
  70
    32
  0
VERTEX
  8
0
  5
8EB
 10
3194.99
 20
1838.68
 30
0.000000
  70
    32
  0
VERTEX
  8
0
  5
8EC
 10
3195.03
 20
1838.66
 30
0.000000
  70
    32
  0
VERTEX
  8
0
  5
8ED
 10
3195.07
 20
1838.64
 30
0.000000
  70
    32
  0
VERTEX
  8
0
  5
8EE
 10
3195.11
 20
1838.62
 30
0.000000
  70
    32
  0
VERTEX
  8
0
  5
8EF
 10
3195.15
 20
1838.60
 30
0.000000
  70
    32
  0
VERTEX
  8
0
  5
8F0
 10
3195.19
 20
1838.58
 30
0.000000
  70
    32
  0
VERTEX
  8
0
  5
8F1
 10
3195.23
 20
1838.56
 30
0.000000
  70
    32
  0
VERTEX
  8
0
  5
8F2
 10
3195.27
 20
1838.53
 30
0.000000
  70
    32
  0
VERTEX
  8
0
  5
8F3
 10
3195.31
 20
1838.51
 30
0.000000
  70
    32
  0
VERTEX
  8
0
  5
8F4
 10
3195.35
 20
1838.49
 30
0.000000
  70
    32
  0
VERTEX
  8
0
  5
8F5
 10
3195.40
 20
1838.48
 30
0.000000
  70
    32
  0
VERTEX
  8
0
  5
8F6
 10
3195.44
 20
1838.46
 30
0.000000
  70
    32
  0
VERTEX
  8
0
  5
8F7
 10
3195.48
 20
1838.44
 30
0.000000
  70
    32
  0
VERTEX
  8
0
  5
8F8
 10
3195.52
 20
1838.42
 30
0.000000
  70
    32
  0
VERTEX
  8
0
  5
8F9
 10
3195.56
 20
1838.40
 30
0.000000
  70
    32
  0
VERTEX
  8
0
  5
8FA
 10
3195.60
 20
1838.38
 30
0.000000
  70
    32
  0
VERTEX
  8
0
  5
8FB
 10
3195.64
 20
1838.36
 30
0.000000
  70
    32
  0
VERTEX
  8
0
  5
8FC
 10
3195.68
 20
1838.34
 30
0.000000
  70
    32
  0
VERTEX
  8
0
  5
8FD
 10
3195.73
 20
1838.32
 30
0.000000
  70
    32
  0
VERTEX
  8
0
  5
8FE
 10
3195.77
 20
1838.30
 30
0.000000
  70
    32
  0
VERTEX
  8
0
  5
8FF
 10
3195.81
 20
1838.28
 30
0.000000
  70
    32
  0
VERTEX
  8
0
  5
900
 10
3195.85
 20
1838.27
 30
0.000000
  70
    32
  0
VERTEX
  8
0
  5
901
 10
3195.89
 20
1838.25
 30
0.000000
  70
    32
  0
VERTEX
  8
0
  5
902
 10
3195.93
 20
1838.23
 30
0.000000
  70
    32
  0
VERTEX
  8
0
  5
903
 10
3195.98
 20
1838.21
 30
0.000000
  70
    32
  0
VERTEX
  8
0
  5
904
 10
3196.02
 20
1838.19
 30
0.000000
  70
    32
  0
VERTEX
  8
0
  5
905
 10
3196.06
 20
1838.18
 30
0.000000
  70
    32
  0
VERTEX
  8
0
  5
906
 10
3196.10
 20
1838.16
 30
0.000000
  70
    32
  0
VERTEX
  8
0
  5
907
 10
3196.14
 20
1838.14
 30
0.000000
  70
    32
  0
VERTEX
  8
0
  5
908
 10
3196.19
 20
1838.12
 30
0.000000
  70
    32
  0
VERTEX
  8
0
  5
909
 10
3196.23
 20
1838.11
 30
0.000000
  70
    32
  0
VERTEX
  8
0
  5
90A
 10
3196.27
 20
1838.09
 30
0.000000
  70
    32
  0
VERTEX
  8
0
  5
90B
 10
3196.31
 20
1838.07
 30
0.000000
  70
    32
  0
VERTEX
  8
0
  5
90C
 10
3196.36
 20
1838.06
 30
0.000000
  70
    32
  0
VERTEX
  8
0
  5
90D
 10
3196.40
 20
1838.04
 30
0.000000
  70
    32
  0
VERTEX
  8
0
  5
90E
 10
3196.44
 20
1838.02
 30
0.000000
  70
    32
  0
VERTEX
  8
0
  5
90F
 10
3196.48
 20
1838.01
 30
0.000000
  70
    32
  0
VERTEX
  8
0
  5
910
 10
3196.53
 20
1837.99
 30
0.000000
  70
    32
  0
VERTEX
  8
0
  5
911
 10
3196.57
 20
1837.98
 30
0.000000
  70
    32
  0
VERTEX
  8
0
  5
912
 10
3196.61
 20
1837.96
 30
0.000000
  70
    32
  0
VERTEX
  8
0
  5
913
 10
3196.65
 20
1837.94
 30
0.000000
  70
    32
  0
VERTEX
  8
0
  5
914
 10
3196.70
 20
1837.93
 30
0.000000
  70
    32
  0
VERTEX
  8
0
  5
915
 10
3196.74
 20
1837.91
 30
0.000000
  70
    32
  0
VERTEX
  8
0
  5
916
 10
3196.78
 20
1837.90
 30
0.000000
  70
    32
  0
VERTEX
  8
0
  5
917
 10
3196.82
 20
1837.88
 30
0.000000
  70
    32
  0
VERTEX
  8
0
  5
918
 10
3196.87
 20
1837.87
 30
0.000000
  70
    32
  0
VERTEX
  8
0
  5
919
 10
3196.91
 20
1837.85
 30
0.000000
  70
    32
  0
VERTEX
  8
0
  5
91A
 10
3196.95
 20
1837.84
 30
0.000000
  70
    32
  0
VERTEX
  8
0
  5
91B
 10
3197.00
 20
1837.82
 30
0.000000
  70
    32
  0
VERTEX
  8
0
  5
91C
 10
3197.04
 20
1837.81
 30
0.000000
  70
    32
  0
VERTEX
  8
0
  5
91D
 10
3197.08
 20
1837.79
 30
0.000000
  70
    32
  0
VERTEX
  8
0
  5
91E
 10
3197.13
 20
1837.78
 30
0.000000
  70
    32
  0
VERTEX
  8
0
  5
91F
 10
3197.17
 20
1837.76
 30
0.000000
  70
    32
  0
VERTEX
  8
0
  5
920
 10
3197.21
 20
1837.75
 30
0.000000
  70
    32
  0
VERTEX
  8
0
  5
921
 10
3197.26
 20
1837.74
 30
0.000000
  70
    32
  0
VERTEX
  8
0
  5
922
 10
3197.30
 20
1837.72
 30
0.000000
  70
    32
  0
VERTEX
  8
0
  5
923
 10
3197.34
 20
1837.71
 30
0.000000
  70
    32
  0
VERTEX
  8
0
  5
924
 10
3197.39
 20
1837.69
 30
0.000000
  70
    32
  0
VERTEX
  8
0
  5
925
 10
3197.43
 20
1837.68
 30
0.000000
  70
    32
  0
VERTEX
  8
0
  5
926
 10
3197.47
 20
1837.67
 30
0.000000
  70
    32
  0
VERTEX
  8
0
  5
927
 10
3197.52
 20
1837.65
 30
0.000000
  70
    32
  0
VERTEX
  8
0
  5
928
 10
3197.56
 20
1837.64
 30
0.000000
  70
    32
  0
VERTEX
  8
0
  5
929
 10
3197.60
 20
1837.63
 30
0.000000
  70
    32
  0
VERTEX
  8
0
  5
92A
 10
3197.65
 20
1837.61
 30
0.000000
  70
    32
  0
VERTEX
  8
0
  5
92B
 10
3197.69
 20
1837.60
 30
0.000000
  70
    32
  0
VERTEX
  8
0
  5
92C
 10
3197.74
 20
1837.59
 30
0.000000
  70
    32
  0
VERTEX
  8
0
  5
92D
 10
3197.78
 20
1837.58
 30
0.000000
  70
    32
  0
VERTEX
  8
0
  5
92E
 10
3197.82
 20
1837.56
 30
0.000000
  70
    32
  0
VERTEX
  8
0
  5
92F
 10
3197.87
 20
1837.55
 30
0.000000
  70
    32
  0
VERTEX
  8
0
  5
930
 10
3197.91
 20
1837.54
 30
0.000000
  70
    32
  0
VERTEX
  8
0
  5
931
 10
3197.95
 20
1837.53
 30
0.000000
  70
    32
  0
VERTEX
  8
0
  5
932
 10
3198.00
 20
1837.52
 30
0.000000
  70
    32
  0
VERTEX
  8
0
  5
933
 10
3198.04
 20
1837.50
 30
0.000000
  70
    32
  0
VERTEX
  8
0
  5
934
 10
3198.09
 20
1837.49
 30
0.000000
  70
    32
  0
VERTEX
  8
0
  5
935
 10
3198.13
 20
1837.48
 30
0.000000
  70
    32
  0
VERTEX
  8
0
  5
936
 10
3198.17
 20
1837.47
 30
0.000000
  70
    32
  0
VERTEX
  8
0
  5
937
 10
3198.22
 20
1837.46
 30
0.000000
  70
    32
  0
VERTEX
  8
0
  5
938
 10
3198.26
 20
1837.45
 30
0.000000
  70
    32
  0
VERTEX
  8
0
  5
939
 10
3198.31
 20
1837.44
 30
0.000000
  70
    32
  0
VERTEX
  8
0
  5
93A
 10
3198.35
 20
1837.43
 30
0.000000
  70
    32
  0
VERTEX
  8
0
  5
93B
 10
3198.40
 20
1837.41
 30
0.000000
  70
    32
  0
VERTEX
  8
0
  5
93C
 10
3198.44
 20
1837.40
 30
0.000000
  70
    32
  0
VERTEX
  8
0
  5
93D
 10
3198.48
 20
1837.39
 30
0.000000
  70
    32
  0
VERTEX
  8
0
  5
93E
 10
3198.53
 20
1837.38
 30
0.000000
  70
    32
  0
VERTEX
  8
0
  5
93F
 10
3198.57
 20
1837.37
 30
0.000000
  70
    32
  0
VERTEX
  8
0
  5
940
 10
3198.62
 20
1837.36
 30
0.000000
  70
    32
  0
VERTEX
  8
0
  5
941
 10
3198.66
 20
1837.35
 30
0.000000
  70
    32
  0
VERTEX
  8
0
  5
942
 10
3198.71
 20
1837.34
 30
0.000000
  70
    32
  0
VERTEX
  8
0
  5
943
 10
3198.75
 20
1837.33
 30
0.000000
  70
    32
  0
VERTEX
  8
0
  5
944
 10
3198.79
 20
1837.32
 30
0.000000
  70
    32
  0
VERTEX
  8
0
  5
945
 10
3198.84
 20
1837.31
 30
0.000000
  70
    32
  0
VERTEX
  8
0
  5
946
 10
3198.88
 20
1837.30
 30
0.000000
  70
    32
  0
VERTEX
  8
0
  5
947
 10
3198.93
 20
1837.29
 30
0.000000
  70
    32
  0
VERTEX
  8
0
  5
948
 10
3198.97
 20
1837.29
 30
0.000000
  70
    32
  0
VERTEX
  8
0
  5
949
 10
3199.02
 20
1837.28
 30
0.000000
  70
    32
  0
VERTEX
  8
0
  5
94A
 10
3199.06
 20
1837.27
 30
0.000000
  70
    32
  0
VERTEX
  8
0
  5
94B
 10
3199.11
 20
1837.26
 30
0.000000
  70
    32
  0
VERTEX
  8
0
  5
94C
 10
3199.15
 20
1837.25
 30
0.000000
  70
    32
  0
VERTEX
  8
0
  5
94D
 10
3199.20
 20
1837.24
 30
0.000000
  70
    32
  0
VERTEX
  8
0
  5
94E
 10
3199.24
 20
1837.23
 30
0.000000
  70
    32
  0
VERTEX
  8
0
  5
94F
 10
3199.29
 20
1837.22
 30
0.000000
  70
    32
  0
VERTEX
  8
0
  5
950
 10
3199.33
 20
1837.22
 30
0.000000
  70
    32
  0
VERTEX
  8
0
  5
951
 10
3199.38
 20
1837.21
 30
0.000000
  70
    32
  0
VERTEX
  8
0
  5
952
 10
3199.42
 20
1837.20
 30
0.000000
  70
    32
  0
VERTEX
  8
0
  5
953
 10
3199.46
 20
1837.19
 30
0.000000
  70
    32
  0
VERTEX
  8
0
  5
954
 10
3199.51
 20
1837.18
 30
0.000000
  70
    32
  0
VERTEX
  8
0
  5
955
 10
3199.55
 20
1837.18
 30
0.000000
  70
    32
  0
VERTEX
  8
0
  5
956
 10
3199.60
 20
1837.17
 30
0.000000
  70
    32
  0
VERTEX
  8
0
  5
957
 10
3199.64
 20
1837.16
 30
0.000000
  70
    32
  0
VERTEX
  8
0
  5
958
 10
3199.69
 20
1837.15
 30
0.000000
  70
    32
  0
VERTEX
  8
0
  5
959
 10
3199.73
 20
1837.15
 30
0.000000
  70
    32
  0
VERTEX
  8
0
  5
95A
 10
3199.78
 20
1837.14
 30
0.000000
  70
    32
  0
VERTEX
  8
0
  5
95B
 10
3199.82
 20
1837.13
 30
0.000000
  70
    32
  0
VERTEX
  8
0
  5
95C
 10
3199.87
 20
1837.13
 30
0.000000
  70
    32
  0
VERTEX
  8
0
  5
95D
 10
3199.91
 20
1837.12
 30
0.000000
  70
    32
  0
VERTEX
  8
0
  5
95E
 10
3199.96
 20
1837.11
 30
0.000000
  70
    32
  0
VERTEX
  8
0
  5
95F
 10
3200.00
 20
1837.11
 30
0.000000
  70
    32
  0
VERTEX
  8
0
  5
960
 10
3200.05
 20
1837.10
 30
0.000000
  70
    32
  0
VERTEX
  8
0
  5
961
 10
3200.09
 20
1837.09
 30
0.000000
  70
    32
  0
VERTEX
  8
0
  5
962
 10
3200.14
 20
1837.09
 30
0.000000
  70
    32
  0
VERTEX
  8
0
  5
963
 10
3200.19
 20
1837.08
 30
0.000000
  70
    32
  0
VERTEX
  8
0
  5
964
 10
3200.23
 20
1837.08
 30
0.000000
  70
    32
  0
VERTEX
  8
0
  5
965
 10
3200.28
 20
1837.07
 30
0.000000
  70
    32
  0
VERTEX
  8
0
  5
966
 10
3200.32
 20
1837.06
 30
0.000000
  70
    32
  0
VERTEX
  8
0
  5
967
 10
3200.37
 20
1837.06
 30
0.000000
  70
    32
  0
VERTEX
  8
0
  5
968
 10
3200.41
 20
1837.05
 30
0.000000
  70
    32
  0
VERTEX
  8
0
  5
969
 10
3200.46
 20
1837.05
 30
0.000000
  70
    32
  0
VERTEX
  8
0
  5
96A
 10
3200.50
 20
1837.04
 30
0.000000
  70
    32
  0
VERTEX
  8
0
  5
96B
 10
3200.55
 20
1837.04
 30
0.000000
  70
    32
  0
VERTEX
  8
0
  5
96C
 10
3200.59
 20
1837.03
 30
0.000000
  70
    32
  0
VERTEX
  8
0
  5
96D
 10
3200.64
 20
1837.03
 30
0.000000
  70
    32
  0
VERTEX
  8
0
  5
96E
 10
3200.68
 20
1837.02
 30
0.000000
  70
    32
  0
VERTEX
  8
0
  5
96F
 10
3200.73
 20
1837.02
 30
0.000000
  70
    32
  0
VERTEX
  8
0
  5
970
 10
3200.77
 20
1837.01
 30
0.000000
  70
    32
  0
VERTEX
  8
0
  5
971
 10
3200.82
 20
1837.01
 30
0.000000
  70
    32
  0
VERTEX
  8
0
  5
972
 10
3200.86
 20
1837.00
 30
0.000000
  70
    32
  0
VERTEX
  8
0
  5
973
 10
3200.91
 20
1837.00
 30
0.000000
  70
    32
  0
VERTEX
  8
0
  5
974
 10
3200.95
 20
1837.00
 30
0.000000
  70
    32
  0
VERTEX
  8
0
  5
975
 10
3201.00
 20
1836.99
 30
0.000000
  70
    32
  0
VERTEX
  8
0
  5
976
 10
3201.05
 20
1836.99
 30
0.000000
  70
    32
  0
VERTEX
  8
0
  5
977
 10
3201.09
 20
1836.98
 30
0.000000
  70
    32
  0
VERTEX
  8
0
  5
978
 10
3201.14
 20
1836.98
 30
0.000000
  70
    32
  0
VERTEX
  8
0
  5
979
 10
3201.18
 20
1836.98
 30
0.000000
  70
    32
  0
VERTEX
  8
0
  5
97A
 10
3201.23
 20
1836.97
 30
0.000000
  70
    32
  0
VERTEX
  8
0
  5
97B
 10
3201.27
 20
1836.97
 30
0.000000
  70
    32
  0
VERTEX
  8
0
  5
97C
 10
3201.32
 20
1836.97
 30
0.000000
  70
    32
  0
VERTEX
  8
0
  5
97D
 10
3201.36
 20
1836.96
 30
0.000000
  70
    32
  0
VERTEX
  8
0
  5
97E
 10
3201.41
 20
1836.96
 30
0.000000
  70
    32
  0
VERTEX
  8
0
  5
97F
 10
3201.45
 20
1836.96
 30
0.000000
  70
    32
  0
VERTEX
  8
0
  5
980
 10
3201.50
 20
1836.96
 30
0.000000
  70
    32
  0
VERTEX
  8
0
  5
981
 10
3201.54
 20
1836.95
 30
0.000000
  70
    32
  0
VERTEX
  8
0
  5
982
 10
3201.59
 20
1836.95
 30
0.000000
  70
    32
  0
VERTEX
  8
0
  5
983
 10
3201.64
 20
1836.95
 30
0.000000
  70
    32
  0
VERTEX
  8
0
  5
984
 10
3201.68
 20
1836.95
 30
0.000000
  70
    32
  0
VERTEX
  8
0
  5
985
 10
3201.73
 20
1836.94
 30
0.000000
  70
    32
  0
VERTEX
  8
0
  5
986
 10
3201.77
 20
1836.94
 30
0.000000
  70
    32
  0
VERTEX
  8
0
  5
987
 10
3201.82
 20
1836.94
 30
0.000000
  70
    32
  0
VERTEX
  8
0
  5
988
 10
3201.86
 20
1836.94
 30
0.000000
  70
    32
  0
VERTEX
  8
0
  5
989
 10
3201.91
 20
1836.94
 30
0.000000
  70
    32
  0
VERTEX
  8
0
  5
98A
 10
3201.95
 20
1836.94
 30
0.000000
  70
    32
  0
VERTEX
  8
0
  5
98B
 10
3202.00
 20
1836.93
 30
0.000000
  70
    32
  0
VERTEX
  8
0
  5
98C
 10
3202.05
 20
1836.93
 30
0.000000
  70
    32
  0
VERTEX
  8
0
  5
98D
 10
3202.09
 20
1836.93
 30
0.000000
  70
    32
  0
VERTEX
  8
0
  5
98E
 10
3202.14
 20
1836.93
 30
0.000000
  70
    32
  0
VERTEX
  8
0
  5
98F
 10
3202.18
 20
1836.93
 30
0.000000
  70
    32
  0
VERTEX
  8
0
  5
990
 10
3202.23
 20
1836.93
 30
0.000000
  70
    32
  0
VERTEX
  8
0
  5
991
 10
3202.27
 20
1836.93
 30
0.000000
  70
    32
  0
VERTEX
  8
0
  5
992
 10
3202.32
 20
1836.93
 30
0.000000
  70
    32
  0
VERTEX
  8
0
  5
993
 10
3202.36
 20
1836.93
 30
0.000000
  70
    32
  0
VERTEX
  8
0
  5
994
 10
3202.41
 20
1836.93
 30
0.000000
  70
    32
  0
VERTEX
  8
0
  5
995
 10
3202.45
 20
1836.93
 30
0.000000
  70
    32
  0
VERTEX
  8
0
  5
996
 10
3202.50
 20
1836.93
 30
0.000000
  70
    32
  0
VERTEX
  8
0
  5
997
 10
3202.55
 20
1836.93
 30
0.000000
  70
    32
  0
SEQEND
  8
0
  5
998
  0
POLYLINE
  8
0
  5
999
  66
     1
 10
0.000000
 20
0.000000
 30
0.000000
  70
     8
  0
VERTEX
  8
0
  5
99A
 10
3187.27
 20
1841.25
 30
0.000000
  70
    32
  0
VERTEX
  8
0
  5
99B
 10
3187.30
 20
1841.20
 30
0.000000
  70
    32
  0
VERTEX
  8
0
  5
99C
 10
3187.33
 20
1841.14
 30
0.000000
  70
    32
  0
VERTEX
  8
0
  5
99D
 10
3187.36
 20
1841.09
 30
0.000000
  70
    32
  0
VERTEX
  8
0
  5
99E
 10
3187.39
 20
1841.04
 30
0.000000
  70
    32
  0
VERTEX
  8
0
  5
99F
 10
3187.43
 20
1840.99
 30
0.000000
  70
    32
  0
VERTEX
  8
0
  5
9A0
 10
3187.46
 20
1840.94
 30
0.000000
  70
    32
  0
VERTEX
  8
0
  5
9A1
 10
3187.49
 20
1840.89
 30
0.000000
  70
    32
  0
VERTEX
  8
0
  5
9A2
 10
3187.52
 20
1840.84
 30
0.000000
  70
    32
  0
VERTEX
  8
0
  5
9A3
 10
3187.56
 20
1840.78
 30
0.000000
  70
    32
  0
VERTEX
  8
0
  5
9A4
 10
3187.59
 20
1840.73
 30
0.000000
  70
    32
  0
VERTEX
  8
0
  5
9A5
 10
3187.63
 20
1840.68
 30
0.000000
  70
    32
  0
VERTEX
  8
0
  5
9A6
 10
3187.66
 20
1840.63
 30
0.000000
  70
    32
  0
VERTEX
  8
0
  5
9A7
 10
3187.70
 20
1840.58
 30
0.000000
  70
    32
  0
VERTEX
  8
0
  5
9A8
 10
3187.73
 20
1840.53
 30
0.000000
  70
    32
  0
VERTEX
  8
0
  5
9A9
 10
3187.77
 20
1840.49
 30
0.000000
  70
    32
  0
VERTEX
  8
0
  5
9AA
 10
3187.80
 20
1840.44
 30
0.000000
  70
    32
  0
VERTEX
  8
0
  5
9AB
 10
3187.84
 20
1840.39
 30
0.000000
  70
    32
  0
VERTEX
  8
0
  5
9AC
 10
3187.87
 20
1840.34
 30
0.000000
  70
    32
  0
VERTEX
  8
0
  5
9AD
 10
3187.91
 20
1840.29
 30
0.000000
  70
    32
  0
VERTEX
  8
0
  5
9AE
 10
3187.95
 20
1840.24
 30
0.000000
  70
    32
  0
VERTEX
  8
0
  5
9AF
 10
3187.98
 20
1840.19
 30
0.000000
  70
    32
  0
VERTEX
  8
0
  5
9B0
 10
3188.02
 20
1840.15
 30
0.000000
  70
    32
  0
VERTEX
  8
0
  5
9B1
 10
3188.06
 20
1840.10
 30
0.000000
  70
    32
  0
VERTEX
  8
0
  5
9B2
 10
3188.10
 20
1840.05
 30
0.000000
  70
    32
  0
VERTEX
  8
0
  5
9B3
 10
3188.14
 20
1840.00
 30
0.000000
  70
    32
  0
VERTEX
  8
0
  5
9B4
 10
3188.17
 20
1839.96
 30
0.000000
  70
    32
  0
VERTEX
  8
0
  5
9B5
 10
3188.21
 20
1839.91
 30
0.000000
  70
    32
  0
VERTEX
  8
0
  5
9B6
 10
3188.25
 20
1839.86
 30
0.000000
  70
    32
  0
VERTEX
  8
0
  5
9B7
 10
3188.29
 20
1839.81
 30
0.000000
  70
    32
  0
VERTEX
  8
0
  5
9B8
 10
3188.33
 20
1839.77
 30
0.000000
  70
    32
  0
VERTEX
  8
0
  5
9B9
 10
3188.37
 20
1839.72
 30
0.000000
  70
    32
  0
VERTEX
  8
0
  5
9BA
 10
3188.41
 20
1839.68
 30
0.000000
  70
    32
  0
VERTEX
  8
0
  5
9BB
 10
3188.45
 20
1839.63
 30
0.000000
  70
    32
  0
VERTEX
  8
0
  5
9BC
 10
3188.49
 20
1839.59
 30
0.000000
  70
    32
  0
VERTEX
  8
0
  5
9BD
 10
3188.53
 20
1839.54
 30
0.000000
  70
    32
  0
VERTEX
  8
0
  5
9BE
 10
3188.57
 20
1839.49
 30
0.000000
  70
    32
  0
VERTEX
  8
0
  5
9BF
 10
3188.61
 20
1839.45
 30
0.000000
  70
    32
  0
VERTEX
  8
0
  5
9C0
 10
3188.65
 20
1839.41
 30
0.000000
  70
    32
  0
VERTEX
  8
0
  5
9C1
 10
3188.69
 20
1839.36
 30
0.000000
  70
    32
  0
VERTEX
  8
0
  5
9C2
 10
3188.74
 20
1839.32
 30
0.000000
  70
    32
  0
VERTEX
  8
0
  5
9C3
 10
3188.78
 20
1839.27
 30
0.000000
  70
    32
  0
VERTEX
  8
0
  5
9C4
 10
3188.82
 20
1839.23
 30
0.000000
  70
    32
  0
VERTEX
  8
0
  5
9C5
 10
3188.86
 20
1839.19
 30
0.000000
  70
    32
  0
VERTEX
  8
0
  5
9C6
 10
3188.91
 20
1839.14
 30
0.000000
  70
    32
  0
VERTEX
  8
0
  5
9C7
 10
3188.95
 20
1839.10
 30
0.000000
  70
    32
  0
VERTEX
  8
0
  5
9C8
 10
3188.99
 20
1839.06
 30
0.000000
  70
    32
  0
VERTEX
  8
0
  5
9C9
 10
3189.03
 20
1839.01
 30
0.000000
  70
    32
  0
VERTEX
  8
0
  5
9CA
 10
3189.08
 20
1838.97
 30
0.000000
  70
    32
  0
VERTEX
  8
0
  5
9CB
 10
3189.12
 20
1838.93
 30
0.000000
  70
    32
  0
VERTEX
  8
0
  5
9CC
 10
3189.17
 20
1838.89
 30
0.000000
  70
    32
  0
VERTEX
  8
0
  5
9CD
 10
3189.21
 20
1838.84
 30
0.000000
  70
    32
  0
VERTEX
  8
0
  5
9CE
 10
3189.25
 20
1838.80
 30
0.000000
  70
    32
  0
VERTEX
  8
0
  5
9CF
 10
3189.30
 20
1838.76
 30
0.000000
  70
    32
  0
VERTEX
  8
0
  5
9D0
 10
3189.34
 20
1838.72
 30
0.000000
  70
    32
  0
VERTEX
  8
0
  5
9D1
 10
3189.39
 20
1838.68
 30
0.000000
  70
    32
  0
VERTEX
  8
0
  5
9D2
 10
3189.43
 20
1838.64
 30
0.000000
  70
    32
  0
VERTEX
  8
0
  5
9D3
 10
3189.48
 20
1838.60
 30
0.000000
  70
    32
  0
VERTEX
  8
0
  5
9D4
 10
3189.52
 20
1838.56
 30
0.000000
  70
    32
  0
VERTEX
  8
0
  5
9D5
 10
3189.57
 20
1838.52
 30
0.000000
  70
    32
  0
VERTEX
  8
0
  5
9D6
 10
3189.61
 20
1838.48
 30
0.000000
  70
    32
  0
VERTEX
  8
0
  5
9D7
 10
3189.66
 20
1838.44
 30
0.000000
  70
    32
  0
VERTEX
  8
0
  5
9D8
 10
3189.71
 20
1838.40
 30
0.000000
  70
    32
  0
VERTEX
  8
0
  5
9D9
 10
3189.75
 20
1838.36
 30
0.000000
  70
    32
  0
VERTEX
  8
0
  5
9DA
 10
3189.80
 20
1838.32
 30
0.000000
  70
    32
  0
VERTEX
  8
0
  5
9DB
 10
3189.85
 20
1838.28
 30
0.000000
  70
    32
  0
VERTEX
  8
0
  5
9DC
 10
3189.89
 20
1838.24
 30
0.000000
  70
    32
  0
VERTEX
  8
0
  5
9DD
 10
3189.94
 20
1838.20
 30
0.000000
  70
    32
  0
VERTEX
  8
0
  5
9DE
 10
3189.99
 20
1838.17
 30
0.000000
  70
    32
  0
VERTEX
  8
0
  5
9DF
 10
3190.03
 20
1838.13
 30
0.000000
  70
    32
  0
VERTEX
  8
0
  5
9E0
 10
3190.08
 20
1838.09
 30
0.000000
  70
    32
  0
VERTEX
  8
0
  5
9E1
 10
3190.13
 20
1838.05
 30
0.000000
  70
    32
  0
VERTEX
  8
0
  5
9E2
 10
3190.18
 20
1838.01
 30
0.000000
  70
    32
  0
VERTEX
  8
0
  5
9E3
 10
3190.23
 20
1837.98
 30
0.000000
  70
    32
  0
VERTEX
  8
0
  5
9E4
 10
3190.27
 20
1837.94
 30
0.000000
  70
    32
  0
VERTEX
  8
0
  5
9E5
 10
3190.32
 20
1837.90
 30
0.000000
  70
    32
  0
VERTEX
  8
0
  5
9E6
 10
3190.37
 20
1837.87
 30
0.000000
  70
    32
  0
VERTEX
  8
0
  5
9E7
 10
3190.42
 20
1837.83
 30
0.000000
  70
    32
  0
VERTEX
  8
0
  5
9E8
 10
3190.47
 20
1837.79
 30
0.000000
  70
    32
  0
VERTEX
  8
0
  5
9E9
 10
3190.52
 20
1837.76
 30
0.000000
  70
    32
  0
VERTEX
  8
0
  5
9EA
 10
3190.57
 20
1837.72
 30
0.000000
  70
    32
  0
VERTEX
  8
0
  5
9EB
 10
3190.61
 20
1837.69
 30
0.000000
  70
    32
  0
VERTEX
  8
0
  5
9EC
 10
3190.66
 20
1837.65
 30
0.000000
  70
    32
  0
VERTEX
  8
0
  5
9ED
 10
3190.71
 20
1837.61
 30
0.000000
  70
    32
  0
VERTEX
  8
0
  5
9EE
 10
3190.76
 20
1837.58
 30
0.000000
  70
    32
  0
VERTEX
  8
0
  5
9EF
 10
3190.81
 20
1837.55
 30
0.000000
  70
    32
  0
VERTEX
  8
0
  5
9F0
 10
3190.86
 20
1837.51
 30
0.000000
  70
    32
  0
VERTEX
  8
0
  5
9F1
 10
3190.91
 20
1837.48
 30
0.000000
  70
    32
  0
VERTEX
  8
0
  5
9F2
 10
3190.96
 20
1837.44
 30
0.000000
  70
    32
  0
VERTEX
  8
0
  5
9F3
 10
3191.01
 20
1837.41
 30
0.000000
  70
    32
  0
VERTEX
  8
0
  5
9F4
 10
3191.06
 20
1837.37
 30
0.000000
  70
    32
  0
VERTEX
  8
0
  5
9F5
 10
3191.11
 20
1837.34
 30
0.000000
  70
    32
  0
VERTEX
  8
0
  5
9F6
 10
3191.16
 20
1837.31
 30
0.000000
  70
    32
  0
VERTEX
  8
0
  5
9F7
 10
3191.22
 20
1837.27
 30
0.000000
  70
    32
  0
VERTEX
  8
0
  5
9F8
 10
3191.27
 20
1837.24
 30
0.000000
  70
    32
  0
VERTEX
  8
0
  5
9F9
 10
3191.32
 20
1837.21
 30
0.000000
  70
    32
  0
VERTEX
  8
0
  5
9FA
 10
3191.37
 20
1837.17
 30
0.000000
  70
    32
  0
VERTEX
  8
0
  5
9FB
 10
3191.42
 20
1837.14
 30
0.000000
  70
    32
  0
VERTEX
  8
0
  5
9FC
 10
3191.47
 20
1837.11
 30
0.000000
  70
    32
  0
VERTEX
  8
0
  5
9FD
 10
3191.52
 20
1837.08
 30
0.000000
  70
    32
  0
VERTEX
  8
0
  5
9FE
 10
3191.57
 20
1837.05
 30
0.000000
  70
    32
  0
VERTEX
  8
0
  5
9FF
 10
3191.63
 20
1837.01
 30
0.000000
  70
    32
  0
VERTEX
  8
0
  5
A00
 10
3191.68
 20
1836.98
 30
0.000000
  70
    32
  0
VERTEX
  8
0
  5
A01
 10
3191.73
 20
1836.95
 30
0.000000
  70
    32
  0
VERTEX
  8
0
  5
A02
 10
3191.78
 20
1836.92
 30
0.000000
  70
    32
  0
VERTEX
  8
0
  5
A03
 10
3191.84
 20
1836.89
 30
0.000000
  70
    32
  0
VERTEX
  8
0
  5
A04
 10
3191.89
 20
1836.86
 30
0.000000
  70
    32
  0
VERTEX
  8
0
  5
A05
 10
3191.94
 20
1836.83
 30
0.000000
  70
    32
  0
VERTEX
  8
0
  5
A06
 10
3191.99
 20
1836.80
 30
0.000000
  70
    32
  0
VERTEX
  8
0
  5
A07
 10
3192.05
 20
1836.77
 30
0.000000
  70
    32
  0
VERTEX
  8
0
  5
A08
 10
3192.10
 20
1836.74
 30
0.000000
  70
    32
  0
VERTEX
  8
0
  5
A09
 10
3192.15
 20
1836.71
 30
0.000000
  70
    32
  0
VERTEX
  8
0
  5
A0A
 10
3192.20
 20
1836.68
 30
0.000000
  70
    32
  0
VERTEX
  8
0
  5
A0B
 10
3192.26
 20
1836.65
 30
0.000000
  70
    32
  0
VERTEX
  8
0
  5
A0C
 10
3192.31
 20
1836.62
 30
0.000000
  70
    32
  0
VERTEX
  8
0
  5
A0D
 10
3192.36
 20
1836.59
 30
0.000000
  70
    32
  0
VERTEX
  8
0
  5
A0E
 10
3192.42
 20
1836.56
 30
0.000000
  70
    32
  0
VERTEX
  8
0
  5
A0F
 10
3192.47
 20
1836.53
 30
0.000000
  70
    32
  0
VERTEX
  8
0
  5
A10
 10
3192.53
 20
1836.51
 30
0.000000
  70
    32
  0
VERTEX
  8
0
  5
A11
 10
3192.58
 20
1836.48
 30
0.000000
  70
    32
  0
VERTEX
  8
0
  5
A12
 10
3192.63
 20
1836.45
 30
0.000000
  70
    32
  0
VERTEX
  8
0
  5
A13
 10
3192.69
 20
1836.42
 30
0.000000
  70
    32
  0
VERTEX
  8
0
  5
A14
 10
3192.74
 20
1836.39
 30
0.000000
  70
    32
  0
VERTEX
  8
0
  5
A15
 10
3192.80
 20
1836.37
 30
0.000000
  70
    32
  0
VERTEX
  8
0
  5
A16
 10
3192.85
 20
1836.34
 30
0.000000
  70
    32
  0
VERTEX
  8
0
  5
A17
 10
3192.90
 20
1836.31
 30
0.000000
  70
    32
  0
VERTEX
  8
0
  5
A18
 10
3192.96
 20
1836.29
 30
0.000000
  70
    32
  0
VERTEX
  8
0
  5
A19
 10
3193.01
 20
1836.26
 30
0.000000
  70
    32
  0
VERTEX
  8
0
  5
A1A
 10
3193.07
 20
1836.23
 30
0.000000
  70
    32
  0
VERTEX
  8
0
  5
A1B
 10
3193.12
 20
1836.21
 30
0.000000
  70
    32
  0
VERTEX
  8
0
  5
A1C
 10
3193.18
 20
1836.18
 30
0.000000
  70
    32
  0
VERTEX
  8
0
  5
A1D
 10
3193.23
 20
1836.15
 30
0.000000
  70
    32
  0
VERTEX
  8
0
  5
A1E
 10
3193.29
 20
1836.13
 30
0.000000
  70
    32
  0
VERTEX
  8
0
  5
A1F
 10
3193.34
 20
1836.10
 30
0.000000
  70
    32
  0
VERTEX
  8
0
  5
A20
 10
3193.40
 20
1836.08
 30
0.000000
  70
    32
  0
VERTEX
  8
0
  5
A21
 10
3193.45
 20
1836.05
 30
0.000000
  70
    32
  0
VERTEX
  8
0
  5
A22
 10
3193.51
 20
1836.03
 30
0.000000
  70
    32
  0
VERTEX
  8
0
  5
A23
 10
3193.56
 20
1836.00
 30
0.000000
  70
    32
  0
VERTEX
  8
0
  5
A24
 10
3193.62
 20
1835.98
 30
0.000000
  70
    32
  0
VERTEX
  8
0
  5
A25
 10
3193.67
 20
1835.95
 30
0.000000
  70
    32
  0
VERTEX
  8
0
  5
A26
 10
3193.73
 20
1835.93
 30
0.000000
  70
    32
  0
VERTEX
  8
0
  5
A27
 10
3193.79
 20
1835.90
 30
0.000000
  70
    32
  0
VERTEX
  8
0
  5
A28
 10
3193.84
 20
1835.88
 30
0.000000
  70
    32
  0
VERTEX
  8
0
  5
A29
 10
3193.90
 20
1835.86
 30
0.000000
  70
    32
  0
VERTEX
  8
0
  5
A2A
 10
3193.95
 20
1835.83
 30
0.000000
  70
    32
  0
VERTEX
  8
0
  5
A2B
 10
3194.01
 20
1835.81
 30
0.000000
  70
    32
  0
VERTEX
  8
0
  5
A2C
 10
3194.07
 20
1835.79
 30
0.000000
  70
    32
  0
VERTEX
  8
0
  5
A2D
 10
3194.12
 20
1835.76
 30
0.000000
  70
    32
  0
VERTEX
  8
0
  5
A2E
 10
3194.18
 20
1835.74
 30
0.000000
  70
    32
  0
VERTEX
  8
0
  5
A2F
 10
3194.23
 20
1835.72
 30
0.000000
  70
    32
  0
VERTEX
  8
0
  5
A30
 10
3194.29
 20
1835.69
 30
0.000000
  70
    32
  0
VERTEX
  8
0
  5
A31
 10
3194.35
 20
1835.67
 30
0.000000
  70
    32
  0
VERTEX
  8
0
  5
A32
 10
3194.40
 20
1835.65
 30
0.000000
  70
    32
  0
VERTEX
  8
0
  5
A33
 10
3194.46
 20
1835.63
 30
0.000000
  70
    32
  0
VERTEX
  8
0
  5
A34
 10
3194.52
 20
1835.61
 30
0.000000
  70
    32
  0
VERTEX
  8
0
  5
A35
 10
3194.57
 20
1835.58
 30
0.000000
  70
    32
  0
VERTEX
  8
0
  5
A36
 10
3194.63
 20
1835.56
 30
0.000000
  70
    32
  0
VERTEX
  8
0
  5
A37
 10
3194.69
 20
1835.54
 30
0.000000
  70
    32
  0
VERTEX
  8
0
  5
A38
 10
3194.74
 20
1835.52
 30
0.000000
  70
    32
  0
VERTEX
  8
0
  5
A39
 10
3194.80
 20
1835.50
 30
0.000000
  70
    32
  0
VERTEX
  8
0
  5
A3A
 10
3194.86
 20
1835.48
 30
0.000000
  70
    32
  0
VERTEX
  8
0
  5
A3B
 10
3194.92
 20
1835.46
 30
0.000000
  70
    32
  0
VERTEX
  8
0
  5
A3C
 10
3194.97
 20
1835.44
 30
0.000000
  70
    32
  0
VERTEX
  8
0
  5
A3D
 10
3195.03
 20
1835.42
 30
0.000000
  70
    32
  0
VERTEX
  8
0
  5
A3E
 10
3195.09
 20
1835.40
 30
0.000000
  70
    32
  0
VERTEX
  8
0
  5
A3F
 10
3195.15
 20
1835.38
 30
0.000000
  70
    32
  0
VERTEX
  8
0
  5
A40
 10
3195.20
 20
1835.36
 30
0.000000
  70
    32
  0
VERTEX
  8
0
  5
A41
 10
3195.26
 20
1835.34
 30
0.000000
  70
    32
  0
VERTEX
  8
0
  5
A42
 10
3195.32
 20
1835.32
 30
0.000000
  70
    32
  0
VERTEX
  8
0
  5
A43
 10
3195.38
 20
1835.30
 30
0.000000
  70
    32
  0
VERTEX
  8
0
  5
A44
 10
3195.43
 20
1835.28
 30
0.000000
  70
    32
  0
VERTEX
  8
0
  5
A45
 10
3195.49
 20
1835.26
 30
0.000000
  70
    32
  0
VERTEX
  8
0
  5
A46
 10
3195.55
 20
1835.24
 30
0.000000
  70
    32
  0
VERTEX
  8
0
  5
A47
 10
3195.61
 20
1835.22
 30
0.000000
  70
    32
  0
VERTEX
  8
0
  5
A48
 10
3195.67
 20
1835.20
 30
0.000000
  70
    32
  0
VERTEX
  8
0
  5
A49
 10
3195.72
 20
1835.19
 30
0.000000
  70
    32
  0
VERTEX
  8
0
  5
A4A
 10
3195.78
 20
1835.17
 30
0.000000
  70
    32
  0
VERTEX
  8
0
  5
A4B
 10
3195.84
 20
1835.15
 30
0.000000
  70
    32
  0
VERTEX
  8
0
  5
A4C
 10
3195.90
 20
1835.13
 30
0.000000
  70
    32
  0
VERTEX
  8
0
  5
A4D
 10
3195.96
 20
1835.11
 30
0.000000
  70
    32
  0
VERTEX
  8
0
  5
A4E
 10
3196.01
 20
1835.10
 30
0.000000
  70
    32
  0
VERTEX
  8
0
  5
A4F
 10
3196.07
 20
1835.08
 30
0.000000
  70
    32
  0
VERTEX
  8
0
  5
A50
 10
3196.13
 20
1835.06
 30
0.000000
  70
    32
  0
VERTEX
  8
0
  5
A51
 10
3196.19
 20
1835.05
 30
0.000000
  70
    32
  0
VERTEX
  8
0
  5
A52
 10
3196.25
 20
1835.03
 30
0.000000
  70
    32
  0
VERTEX
  8
0
  5
A53
 10
3196.31
 20
1835.01
 30
0.000000
  70
    32
  0
VERTEX
  8
0
  5
A54
 10
3196.36
 20
1835.00
 30
0.000000
  70
    32
  0
VERTEX
  8
0
  5
A55
 10
3196.42
 20
1834.98
 30
0.000000
  70
    32
  0
VERTEX
  8
0
  5
A56
 10
3196.48
 20
1834.96
 30
0.000000
  70
    32
  0
VERTEX
  8
0
  5
A57
 10
3196.54
 20
1834.95
 30
0.000000
  70
    32
  0
VERTEX
  8
0
  5
A58
 10
3196.60
 20
1834.93
 30
0.000000
  70
    32
  0
VERTEX
  8
0
  5
A59
 10
3196.66
 20
1834.92
 30
0.000000
  70
    32
  0
VERTEX
  8
0
  5
A5A
 10
3196.72
 20
1834.90
 30
0.000000
  70
    32
  0
VERTEX
  8
0
  5
A5B
 10
3196.78
 20
1834.89
 30
0.000000
  70
    32
  0
VERTEX
  8
0
  5
A5C
 10
3196.84
 20
1834.87
 30
0.000000
  70
    32
  0
VERTEX
  8
0
  5
A5D
 10
3196.89
 20
1834.86
 30
0.000000
  70
    32
  0
VERTEX
  8
0
  5
A5E
 10
3196.95
 20
1834.84
 30
0.000000
  70
    32
  0
VERTEX
  8
0
  5
A5F
 10
3197.01
 20
1834.83
 30
0.000000
  70
    32
  0
VERTEX
  8
0
  5
A60
 10
3197.07
 20
1834.81
 30
0.000000
  70
    32
  0
VERTEX
  8
0
  5
A61
 10
3197.13
 20
1834.80
 30
0.000000
  70
    32
  0
VERTEX
  8
0
  5
A62
 10
3197.19
 20
1834.78
 30
0.000000
  70
    32
  0
VERTEX
  8
0
  5
A63
 10
3197.25
 20
1834.77
 30
0.000000
  70
    32
  0
VERTEX
  8
0
  5
A64
 10
3197.31
 20
1834.76
 30
0.000000
  70
    32
  0
VERTEX
  8
0
  5
A65
 10
3197.37
 20
1834.74
 30
0.000000
  70
    32
  0
VERTEX
  8
0
  5
A66
 10
3197.43
 20
1834.73
 30
0.000000
  70
    32
  0
VERTEX
  8
0
  5
A67
 10
3197.49
 20
1834.72
 30
0.000000
  70
    32
  0
VERTEX
  8
0
  5
A68
 10
3197.55
 20
1834.70
 30
0.000000
  70
    32
  0
VERTEX
  8
0
  5
A69
 10
3197.61
 20
1834.69
 30
0.000000
  70
    32
  0
VERTEX
  8
0
  5
A6A
 10
3197.67
 20
1834.68
 30
0.000000
  70
    32
  0
VERTEX
  8
0
  5
A6B
 10
3197.72
 20
1834.66
 30
0.000000
  70
    32
  0
VERTEX
  8
0
  5
A6C
 10
3197.78
 20
1834.65
 30
0.000000
  70
    32
  0
VERTEX
  8
0
  5
A6D
 10
3197.84
 20
1834.64
 30
0.000000
  70
    32
  0
VERTEX
  8
0
  5
A6E
 10
3197.90
 20
1834.63
 30
0.000000
  70
    32
  0
VERTEX
  8
0
  5
A6F
 10
3197.96
 20
1834.62
 30
0.000000
  70
    32
  0
VERTEX
  8
0
  5
A70
 10
3198.02
 20
1834.60
 30
0.000000
  70
    32
  0
VERTEX
  8
0
  5
A71
 10
3198.08
 20
1834.59
 30
0.000000
  70
    32
  0
VERTEX
  8
0
  5
A72
 10
3198.14
 20
1834.58
 30
0.000000
  70
    32
  0
VERTEX
  8
0
  5
A73
 10
3198.20
 20
1834.57
 30
0.000000
  70
    32
  0
VERTEX
  8
0
  5
A74
 10
3198.26
 20
1834.56
 30
0.000000
  70
    32
  0
VERTEX
  8
0
  5
A75
 10
3198.32
 20
1834.55
 30
0.000000
  70
    32
  0
VERTEX
  8
0
  5
A76
 10
3198.38
 20
1834.54
 30
0.000000
  70
    32
  0
VERTEX
  8
0
  5
A77
 10
3198.44
 20
1834.53
 30
0.000000
  70
    32
  0
VERTEX
  8
0
  5
A78
 10
3198.50
 20
1834.52
 30
0.000000
  70
    32
  0
VERTEX
  8
0
  5
A79
 10
3198.56
 20
1834.50
 30
0.000000
  70
    32
  0
VERTEX
  8
0
  5
A7A
 10
3198.62
 20
1834.49
 30
0.000000
  70
    32
  0
VERTEX
  8
0
  5
A7B
 10
3198.68
 20
1834.48
 30
0.000000
  70
    32
  0
VERTEX
  8
0
  5
A7C
 10
3198.74
 20
1834.47
 30
0.000000
  70
    32
  0
VERTEX
  8
0
  5
A7D
 10
3198.80
 20
1834.46
 30
0.000000
  70
    32
  0
VERTEX
  8
0
  5
A7E
 10
3198.86
 20
1834.46
 30
0.000000
  70
    32
  0
VERTEX
  8
0
  5
A7F
 10
3198.92
 20
1834.45
 30
0.000000
  70
    32
  0
VERTEX
  8
0
  5
A80
 10
3198.98
 20
1834.44
 30
0.000000
  70
    32
  0
VERTEX
  8
0
  5
A81
 10
3199.04
 20
1834.43
 30
0.000000
  70
    32
  0
VERTEX
  8
0
  5
A82
 10
3199.10
 20
1834.42
 30
0.000000
  70
    32
  0
VERTEX
  8
0
  5
A83
 10
3199.16
 20
1834.41
 30
0.000000
  70
    32
  0
VERTEX
  8
0
  5
A84
 10
3199.22
 20
1834.40
 30
0.000000
  70
    32
  0
VERTEX
  8
0
  5
A85
 10
3199.28
 20
1834.39
 30
0.000000
  70
    32
  0
VERTEX
  8
0
  5
A86
 10
3199.34
 20
1834.38
 30
0.000000
  70
    32
  0
VERTEX
  8
0
  5
A87
 10
3199.40
 20
1834.38
 30
0.000000
  70
    32
  0
VERTEX
  8
0
  5
A88
 10
3199.46
 20
1834.37
 30
0.000000
  70
    32
  0
VERTEX
  8
0
  5
A89
 10
3199.52
 20
1834.36
 30
0.000000
  70
    32
  0
VERTEX
  8
0
  5
A8A
 10
3199.58
 20
1834.35
 30
0.000000
  70
    32
  0
VERTEX
  8
0
  5
A8B
 10
3199.65
 20
1834.35
 30
0.000000
  70
    32
  0
VERTEX
  8
0
  5
A8C
 10
3199.71
 20
1834.34
 30
0.000000
  70
    32
  0
VERTEX
  8
0
  5
A8D
 10
3199.77
 20
1834.33
 30
0.000000
  70
    32
  0
VERTEX
  8
0
  5
A8E
 10
3199.83
 20
1834.32
 30
0.000000
  70
    32
  0
VERTEX
  8
0
  5
A8F
 10
3199.89
 20
1834.32
 30
0.000000
  70
    32
  0
VERTEX
  8
0
  5
A90
 10
3199.95
 20
1834.31
 30
0.000000
  70
    32
  0
VERTEX
  8
0
  5
A91
 10
3200.01
 20
1834.30
 30
0.000000
  70
    32
  0
VERTEX
  8
0
  5
A92
 10
3200.07
 20
1834.30
 30
0.000000
  70
    32
  0
VERTEX
  8
0
  5
A93
 10
3200.13
 20
1834.29
 30
0.000000
  70
    32
  0
VERTEX
  8
0
  5
A94
 10
3200.19
 20
1834.28
 30
0.000000
  70
    32
  0
VERTEX
  8
0
  5
A95
 10
3200.25
 20
1834.28
 30
0.000000
  70
    32
  0
VERTEX
  8
0
  5
A96
 10
3200.31
 20
1834.27
 30
0.000000
  70
    32
  0
VERTEX
  8
0
  5
A97
 10
3200.37
 20
1834.27
 30
0.000000
  70
    32
  0
VERTEX
  8
0
  5
A98
 10
3200.43
 20
1834.26
 30
0.000000
  70
    32
  0
VERTEX
  8
0
  5
A99
 10
3200.49
 20
1834.26
 30
0.000000
  70
    32
  0
VERTEX
  8
0
  5
A9A
 10
3200.55
 20
1834.25
 30
0.000000
  70
    32
  0
VERTEX
  8
0
  5
A9B
 10
3200.61
 20
1834.25
 30
0.000000
  70
    32
  0
VERTEX
  8
0
  5
A9C
 10
3200.67
 20
1834.24
 30
0.000000
  70
    32
  0
VERTEX
  8
0
  5
A9D
 10
3200.73
 20
1834.24
 30
0.000000
  70
    32
  0
VERTEX
  8
0
  5
A9E
 10
3200.79
 20
1834.23
 30
0.000000
  70
    32
  0
VERTEX
  8
0
  5
A9F
 10
3200.86
 20
1834.23
 30
0.000000
  70
    32
  0
VERTEX
  8
0
  5
AA0
 10
3200.92
 20
1834.22
 30
0.000000
  70
    32
  0
VERTEX
  8
0
  5
AA1
 10
3200.98
 20
1834.22
 30
0.000000
  70
    32
  0
VERTEX
  8
0
  5
AA2
 10
3201.04
 20
1834.22
 30
0.000000
  70
    32
  0
VERTEX
  8
0
  5
AA3
 10
3201.10
 20
1834.21
 30
0.000000
  70
    32
  0
VERTEX
  8
0
  5
AA4
 10
3201.16
 20
1834.21
 30
0.000000
  70
    32
  0
VERTEX
  8
0
  5
AA5
 10
3201.22
 20
1834.21
 30
0.000000
  70
    32
  0
VERTEX
  8
0
  5
AA6
 10
3201.28
 20
1834.20
 30
0.000000
  70
    32
  0
VERTEX
  8
0
  5
AA7
 10
3201.34
 20
1834.20
 30
0.000000
  70
    32
  0
VERTEX
  8
0
  5
AA8
 10
3201.40
 20
1834.20
 30
0.000000
  70
    32
  0
VERTEX
  8
0
  5
AA9
 10
3201.46
 20
1834.19
 30
0.000000
  70
    32
  0
VERTEX
  8
0
  5
AAA
 10
3201.52
 20
1834.19
 30
0.000000
  70
    32
  0
VERTEX
  8
0
  5
AAB
 10
3201.58
 20
1834.19
 30
0.000000
  70
    32
  0
VERTEX
  8
0
  5
AAC
 10
3201.64
 20
1834.19
 30
0.000000
  70
    32
  0
VERTEX
  8
0
  5
AAD
 10
3201.70
 20
1834.18
 30
0.000000
  70
    32
  0
VERTEX
  8
0
  5
AAE
 10
3201.77
 20
1834.18
 30
0.000000
  70
    32
  0
VERTEX
  8
0
  5
AAF
 10
3201.83
 20
1834.18
 30
0.000000
  70
    32
  0
VERTEX
  8
0
  5
AB0
 10
3201.89
 20
1834.18
 30
0.000000
  70
    32
  0
VERTEX
  8
0
  5
AB1
 10
3201.95
 20
1834.18
 30
0.000000
  70
    32
  0
VERTEX
  8
0
  5
AB2
 10
3202.01
 20
1834.17
 30
0.000000
  70
    32
  0
VERTEX
  8
0
  5
AB3
 10
3202.07
 20
1834.17
 30
0.000000
  70
    32
  0
VERTEX
  8
0
  5
AB4
 10
3202.13
 20
1834.17
 30
0.000000
  70
    32
  0
VERTEX
  8
0
  5
AB5
 10
3202.19
 20
1834.17
 30
0.000000
  70
    32
  0
VERTEX
  8
0
  5
AB6
 10
3202.25
 20
1834.17
 30
0.000000
  70
    32
  0
VERTEX
  8
0
  5
AB7
 10
3202.31
 20
1834.17
 30
0.000000
  70
    32
  0
VERTEX
  8
0
  5
AB8
 10
3202.37
 20
1834.17
 30
0.000000
  70
    32
  0
VERTEX
  8
0
  5
AB9
 10
3202.43
 20
1834.17
 30
0.000000
  70
    32
  0
SEQEND
  8
0
  5
ABA
  0
POLYLINE
  8
0
  5
ABB
  66
     1
 10
0.000000
 20
0.000000
 30
0.000000
  70
     8
  0
VERTEX
  8
0
  5
ABC
 10
3194.05
 20
1858.47
 30
0.000000
  70
    32
  0
VERTEX
  8
0
  5
ABD
 10
3194.03
 20
1858.47
 30
0.000000
  70
    32
  0
VERTEX
  8
0
  5
ABE
 10
3194.01
 20
1858.47
 30
0.000000
  70
    32
  0
VERTEX
  8
0
  5
ABF
 10
3194.00
 20
1858.47
 30
0.000000
  70
    32
  0
VERTEX
  8
0
  5
AC0
 10
3193.98
 20
1858.47
 30
0.000000
  70
    32
  0
VERTEX
  8
0
  5
AC1
 10
3193.96
 20
1858.47
 30
0.000000
  70
    32
  0
VERTEX
  8
0
  5
AC2
 10
3193.95
 20
1858.47
 30
0.000000
  70
    32
  0
VERTEX
  8
0
  5
AC3
 10
3193.93
 20
1858.47
 30
0.000000
  70
    32
  0
VERTEX
  8
0
  5
AC4
 10
3193.91
 20
1858.47
 30
0.000000
  70
    32
  0
VERTEX
  8
0
  5
AC5
 10
3193.90
 20
1858.47
 30
0.000000
  70
    32
  0
VERTEX
  8
0
  5
AC6
 10
3193.88
 20
1858.46
 30
0.000000
  70
    32
  0
VERTEX
  8
0
  5
AC7
 10
3193.86
 20
1858.46
 30
0.000000
  70
    32
  0
VERTEX
  8
0
  5
AC8
 10
3193.84
 20
1858.46
 30
0.000000
  70
    32
  0
VERTEX
  8
0
  5
AC9
 10
3193.83
 20
1858.46
 30
0.000000
  70
    32
  0
VERTEX
  8
0
  5
ACA
 10
3193.81
 20
1858.46
 30
0.000000
  70
    32
  0
VERTEX
  8
0
  5
ACB
 10
3193.79
 20
1858.46
 30
0.000000
  70
    32
  0
VERTEX
  8
0
  5
ACC
 10
3193.78
 20
1858.46
 30
0.000000
  70
    32
  0
VERTEX
  8
0
  5
ACD
 10
3193.76
 20
1858.46
 30
0.000000
  70
    32
  0
VERTEX
  8
0
  5
ACE
 10
3193.74
 20
1858.46
 30
0.000000
  70
    32
  0
VERTEX
  8
0
  5
ACF
 10
3193.73
 20
1858.46
 30
0.000000
  70
    32
  0
VERTEX
  8
0
  5
AD0
 10
3193.71
 20
1858.46
 30
0.000000
  70
    32
  0
VERTEX
  8
0
  5
AD1
 10
3193.69
 20
1858.46
 30
0.000000
  70
    32
  0
VERTEX
  8
0
  5
AD2
 10
3193.68
 20
1858.46
 30
0.000000
  70
    32
  0
VERTEX
  8
0
  5
AD3
 10
3193.66
 20
1858.45
 30
0.000000
  70
    32
  0
VERTEX
  8
0
  5
AD4
 10
3193.64
 20
1858.45
 30
0.000000
  70
    32
  0
VERTEX
  8
0
  5
AD5
 10
3193.63
 20
1858.45
 30
0.000000
  70
    32
  0
VERTEX
  8
0
  5
AD6
 10
3193.61
 20
1858.45
 30
0.000000
  70
    32
  0
VERTEX
  8
0
  5
AD7
 10
3193.59
 20
1858.45
 30
0.000000
  70
    32
  0
VERTEX
  8
0
  5
AD8
 10
3193.58
 20
1858.45
 30
0.000000
  70
    32
  0
VERTEX
  8
0
  5
AD9
 10
3193.56
 20
1858.45
 30
0.000000
  70
    32
  0
VERTEX
  8
0
  5
ADA
 10
3193.54
 20
1858.45
 30
0.000000
  70
    32
  0
VERTEX
  8
0
  5
ADB
 10
3193.53
 20
1858.44
 30
0.000000
  70
    32
  0
VERTEX
  8
0
  5
ADC
 10
3193.51
 20
1858.44
 30
0.000000
  70
    32
  0
VERTEX
  8
0
  5
ADD
 10
3193.49
 20
1858.44
 30
0.000000
  70
    32
  0
VERTEX
  8
0
  5
ADE
 10
3193.48
 20
1858.44
 30
0.000000
  70
    32
  0
VERTEX
  8
0
  5
ADF
 10
3193.46
 20
1858.44
 30
0.000000
  70
    32
  0
VERTEX
  8
0
  5
AE0
 10
3193.44
 20
1858.44
 30
0.000000
  70
    32
  0
VERTEX
  8
0
  5
AE1
 10
3193.43
 20
1858.43
 30
0.000000
  70
    32
  0
VERTEX
  8
0
  5
AE2
 10
3193.41
 20
1858.43
 30
0.000000
  70
    32
  0
VERTEX
  8
0
  5
AE3
 10
3193.39
 20
1858.43
 30
0.000000
  70
    32
  0
VERTEX
  8
0
  5
AE4
 10
3193.38
 20
1858.43
 30
0.000000
  70
    32
  0
VERTEX
  8
0
  5
AE5
 10
3193.36
 20
1858.43
 30
0.000000
  70
    32
  0
VERTEX
  8
0
  5
AE6
 10
3193.34
 20
1858.42
 30
0.000000
  70
    32
  0
VERTEX
  8
0
  5
AE7
 10
3193.33
 20
1858.42
 30
0.000000
  70
    32
  0
VERTEX
  8
0
  5
AE8
 10
3193.31
 20
1858.42
 30
0.000000
  70
    32
  0
VERTEX
  8
0
  5
AE9
 10
3193.29
 20
1858.42
 30
0.000000
  70
    32
  0
VERTEX
  8
0
  5
AEA
 10
3193.28
 20
1858.42
 30
0.000000
  70
    32
  0
VERTEX
  8
0
  5
AEB
 10
3193.26
 20
1858.41
 30
0.000000
  70
    32
  0
VERTEX
  8
0
  5
AEC
 10
3193.24
 20
1858.41
 30
0.000000
  70
    32
  0
VERTEX
  8
0
  5
AED
 10
3193.23
 20
1858.41
 30
0.000000
  70
    32
  0
VERTEX
  8
0
  5
AEE
 10
3193.21
 20
1858.41
 30
0.000000
  70
    32
  0
VERTEX
  8
0
  5
AEF
 10
3193.19
 20
1858.40
 30
0.000000
  70
    32
  0
VERTEX
  8
0
  5
AF0
 10
3193.18
 20
1858.40
 30
0.000000
  70
    32
  0
VERTEX
  8
0
  5
AF1
 10
3193.16
 20
1858.40
 30
0.000000
  70
    32
  0
VERTEX
  8
0
  5
AF2
 10
3193.14
 20
1858.40
 30
0.000000
  70
    32
  0
VERTEX
  8
0
  5
AF3
 10
3193.13
 20
1858.39
 30
0.000000
  70
    32
  0
VERTEX
  8
0
  5
AF4
 10
3193.11
 20
1858.39
 30
0.000000
  70
    32
  0
VERTEX
  8
0
  5
AF5
 10
3193.09
 20
1858.39
 30
0.000000
  70
    32
  0
VERTEX
  8
0
  5
AF6
 10
3193.08
 20
1858.39
 30
0.000000
  70
    32
  0
VERTEX
  8
0
  5
AF7
 10
3193.06
 20
1858.38
 30
0.000000
  70
    32
  0
VERTEX
  8
0
  5
AF8
 10
3193.04
 20
1858.38
 30
0.000000
  70
    32
  0
VERTEX
  8
0
  5
AF9
 10
3193.03
 20
1858.38
 30
0.000000
  70
    32
  0
VERTEX
  8
0
  5
AFA
 10
3193.01
 20
1858.37
 30
0.000000
  70
    32
  0
VERTEX
  8
0
  5
AFB
 10
3192.99
 20
1858.37
 30
0.000000
  70
    32
  0
VERTEX
  8
0
  5
AFC
 10
3192.98
 20
1858.37
 30
0.000000
  70
    32
  0
VERTEX
  8
0
  5
AFD
 10
3192.96
 20
1858.36
 30
0.000000
  70
    32
  0
VERTEX
  8
0
  5
AFE
 10
3192.94
 20
1858.36
 30
0.000000
  70
    32
  0
VERTEX
  8
0
  5
AFF
 10
3192.93
 20
1858.36
 30
0.000000
  70
    32
  0
VERTEX
  8
0
  5
B00
 10
3192.91
 20
1858.35
 30
0.000000
  70
    32
  0
VERTEX
  8
0
  5
B01
 10
3192.89
 20
1858.35
 30
0.000000
  70
    32
  0
VERTEX
  8
0
  5
B02
 10
3192.88
 20
1858.35
 30
0.000000
  70
    32
  0
VERTEX
  8
0
  5
B03
 10
3192.86
 20
1858.34
 30
0.000000
  70
    32
  0
VERTEX
  8
0
  5
B04
 10
3192.85
 20
1858.34
 30
0.000000
  70
    32
  0
VERTEX
  8
0
  5
B05
 10
3192.83
 20
1858.34
 30
0.000000
  70
    32
  0
VERTEX
  8
0
  5
B06
 10
3192.81
 20
1858.33
 30
0.000000
  70
    32
  0
VERTEX
  8
0
  5
B07
 10
3192.80
 20
1858.33
 30
0.000000
  70
    32
  0
VERTEX
  8
0
  5
B08
 10
3192.78
 20
1858.33
 30
0.000000
  70
    32
  0
VERTEX
  8
0
  5
B09
 10
3192.76
 20
1858.32
 30
0.000000
  70
    32
  0
VERTEX
  8
0
  5
B0A
 10
3192.75
 20
1858.32
 30
0.000000
  70
    32
  0
VERTEX
  8
0
  5
B0B
 10
3192.73
 20
1858.31
 30
0.000000
  70
    32
  0
VERTEX
  8
0
  5
B0C
 10
3192.71
 20
1858.31
 30
0.000000
  70
    32
  0
VERTEX
  8
0
  5
B0D
 10
3192.70
 20
1858.31
 30
0.000000
  70
    32
  0
VERTEX
  8
0
  5
B0E
 10
3192.68
 20
1858.30
 30
0.000000
  70
    32
  0
VERTEX
  8
0
  5
B0F
 10
3192.67
 20
1858.30
 30
0.000000
  70
    32
  0
VERTEX
  8
0
  5
B10
 10
3192.65
 20
1858.29
 30
0.000000
  70
    32
  0
VERTEX
  8
0
  5
B11
 10
3192.63
 20
1858.29
 30
0.000000
  70
    32
  0
VERTEX
  8
0
  5
B12
 10
3192.62
 20
1858.29
 30
0.000000
  70
    32
  0
VERTEX
  8
0
  5
B13
 10
3192.60
 20
1858.28
 30
0.000000
  70
    32
  0
VERTEX
  8
0
  5
B14
 10
3192.58
 20
1858.28
 30
0.000000
  70
    32
  0
VERTEX
  8
0
  5
B15
 10
3192.57
 20
1858.27
 30
0.000000
  70
    32
  0
VERTEX
  8
0
  5
B16
 10
3192.55
 20
1858.27
 30
0.000000
  70
    32
  0
VERTEX
  8
0
  5
B17
 10
3192.54
 20
1858.26
 30
0.000000
  70
    32
  0
VERTEX
  8
0
  5
B18
 10
3192.52
 20
1858.26
 30
0.000000
  70
    32
  0
VERTEX
  8
0
  5
B19
 10
3192.50
 20
1858.25
 30
0.000000
  70
    32
  0
VERTEX
  8
0
  5
B1A
 10
3192.49
 20
1858.25
 30
0.000000
  70
    32
  0
VERTEX
  8
0
  5
B1B
 10
3192.47
 20
1858.24
 30
0.000000
  70
    32
  0
VERTEX
  8
0
  5
B1C
 10
3192.46
 20
1858.24
 30
0.000000
  70
    32
  0
VERTEX
  8
0
  5
B1D
 10
3192.44
 20
1858.24
 30
0.000000
  70
    32
  0
VERTEX
  8
0
  5
B1E
 10
3192.42
 20
1858.23
 30
0.000000
  70
    32
  0
VERTEX
  8
0
  5
B1F
 10
3192.41
 20
1858.23
 30
0.000000
  70
    32
  0
VERTEX
  8
0
  5
B20
 10
3192.39
 20
1858.22
 30
0.000000
  70
    32
  0
VERTEX
  8
0
  5
B21
 10
3192.38
 20
1858.22
 30
0.000000
  70
    32
  0
VERTEX
  8
0
  5
B22
 10
3192.36
 20
1858.21
 30
0.000000
  70
    32
  0
VERTEX
  8
0
  5
B23
 10
3192.34
 20
1858.21
 30
0.000000
  70
    32
  0
VERTEX
  8
0
  5
B24
 10
3192.33
 20
1858.20
 30
0.000000
  70
    32
  0
VERTEX
  8
0
  5
B25
 10
3192.31
 20
1858.19
 30
0.000000
  70
    32
  0
VERTEX
  8
0
  5
B26
 10
3192.30
 20
1858.19
 30
0.000000
  70
    32
  0
VERTEX
  8
0
  5
B27
 10
3192.28
 20
1858.18
 30
0.000000
  70
    32
  0
VERTEX
  8
0
  5
B28
 10
3192.26
 20
1858.18
 30
0.000000
  70
    32
  0
VERTEX
  8
0
  5
B29
 10
3192.25
 20
1858.17
 30
0.000000
  70
    32
  0
VERTEX
  8
0
  5
B2A
 10
3192.23
 20
1858.17
 30
0.000000
  70
    32
  0
VERTEX
  8
0
  5
B2B
 10
3192.22
 20
1858.16
 30
0.000000
  70
    32
  0
VERTEX
  8
0
  5
B2C
 10
3192.20
 20
1858.16
 30
0.000000
  70
    32
  0
VERTEX
  8
0
  5
B2D
 10
3192.19
 20
1858.15
 30
0.000000
  70
    32
  0
VERTEX
  8
0
  5
B2E
 10
3192.17
 20
1858.14
 30
0.000000
  70
    32
  0
VERTEX
  8
0
  5
B2F
 10
3192.15
 20
1858.14
 30
0.000000
  70
    32
  0
VERTEX
  8
0
  5
B30
 10
3192.14
 20
1858.13
 30
0.000000
  70
    32
  0
VERTEX
  8
0
  5
B31
 10
3192.12
 20
1858.13
 30
0.000000
  70
    32
  0
VERTEX
  8
0
  5
B32
 10
3192.11
 20
1858.12
 30
0.000000
  70
    32
  0
VERTEX
  8
0
  5
B33
 10
3192.09
 20
1858.12
 30
0.000000
  70
    32
  0
VERTEX
  8
0
  5
B34
 10
3192.08
 20
1858.11
 30
0.000000
  70
    32
  0
VERTEX
  8
0
  5
B35
 10
3192.06
 20
1858.10
 30
0.000000
  70
    32
  0
VERTEX
  8
0
  5
B36
 10
3192.04
 20
1858.10
 30
0.000000
  70
    32
  0
VERTEX
  8
0
  5
B37
 10
3192.03
 20
1858.09
 30
0.000000
  70
    32
  0
VERTEX
  8
0
  5
B38
 10
3192.01
 20
1858.08
 30
0.000000
  70
    32
  0
VERTEX
  8
0
  5
B39
 10
3192.00
 20
1858.08
 30
0.000000
  70
    32
  0
VERTEX
  8
0
  5
B3A
 10
3191.98
 20
1858.07
 30
0.000000
  70
    32
  0
VERTEX
  8
0
  5
B3B
 10
3191.97
 20
1858.07
 30
0.000000
  70
    32
  0
VERTEX
  8
0
  5
B3C
 10
3191.95
 20
1858.06
 30
0.000000
  70
    32
  0
VERTEX
  8
0
  5
B3D
 10
3191.94
 20
1858.05
 30
0.000000
  70
    32
  0
VERTEX
  8
0
  5
B3E
 10
3191.92
 20
1858.05
 30
0.000000
  70
    32
  0
VERTEX
  8
0
  5
B3F
 10
3191.91
 20
1858.04
 30
0.000000
  70
    32
  0
VERTEX
  8
0
  5
B40
 10
3191.89
 20
1858.03
 30
0.000000
  70
    32
  0
VERTEX
  8
0
  5
B41
 10
3191.87
 20
1858.03
 30
0.000000
  70
    32
  0
VERTEX
  8
0
  5
B42
 10
3191.86
 20
1858.02
 30
0.000000
  70
    32
  0
VERTEX
  8
0
  5
B43
 10
3191.84
 20
1858.01
 30
0.000000
  70
    32
  0
VERTEX
  8
0
  5
B44
 10
3191.83
 20
1858.00
 30
0.000000
  70
    32
  0
VERTEX
  8
0
  5
B45
 10
3191.81
 20
1858.00
 30
0.000000
  70
    32
  0
VERTEX
  8
0
  5
B46
 10
3191.80
 20
1857.99
 30
0.000000
  70
    32
  0
VERTEX
  8
0
  5
B47
 10
3191.78
 20
1857.98
 30
0.000000
  70
    32
  0
VERTEX
  8
0
  5
B48
 10
3191.77
 20
1857.98
 30
0.000000
  70
    32
  0
VERTEX
  8
0
  5
B49
 10
3191.75
 20
1857.97
 30
0.000000
  70
    32
  0
VERTEX
  8
0
  5
B4A
 10
3191.74
 20
1857.96
 30
0.000000
  70
    32
  0
VERTEX
  8
0
  5
B4B
 10
3191.72
 20
1857.95
 30
0.000000
  70
    32
  0
VERTEX
  8
0
  5
B4C
 10
3191.71
 20
1857.95
 30
0.000000
  70
    32
  0
VERTEX
  8
0
  5
B4D
 10
3191.69
 20
1857.94
 30
0.000000
  70
    32
  0
VERTEX
  8
0
  5
B4E
 10
3191.68
 20
1857.93
 30
0.000000
  70
    32
  0
VERTEX
  8
0
  5
B4F
 10
3191.66
 20
1857.92
 30
0.000000
  70
    32
  0
VERTEX
  8
0
  5
B50
 10
3191.65
 20
1857.92
 30
0.000000
  70
    32
  0
VERTEX
  8
0
  5
B51
 10
3191.63
 20
1857.91
 30
0.000000
  70
    32
  0
VERTEX
  8
0
  5
B52
 10
3191.62
 20
1857.90
 30
0.000000
  70
    32
  0
VERTEX
  8
0
  5
B53
 10
3191.60
 20
1857.89
 30
0.000000
  70
    32
  0
VERTEX
  8
0
  5
B54
 10
3191.59
 20
1857.89
 30
0.000000
  70
    32
  0
VERTEX
  8
0
  5
B55
 10
3191.57
 20
1857.88
 30
0.000000
  70
    32
  0
VERTEX
  8
0
  5
B56
 10
3191.56
 20
1857.87
 30
0.000000
  70
    32
  0
VERTEX
  8
0
  5
B57
 10
3191.54
 20
1857.86
 30
0.000000
  70
    32
  0
VERTEX
  8
0
  5
B58
 10
3191.53
 20
1857.85
 30
0.000000
  70
    32
  0
VERTEX
  8
0
  5
B59
 10
3191.52
 20
1857.85
 30
0.000000
  70
    32
  0
VERTEX
  8
0
  5
B5A
 10
3191.50
 20
1857.84
 30
0.000000
  70
    32
  0
VERTEX
  8
0
  5
B5B
 10
3191.49
 20
1857.83
 30
0.000000
  70
    32
  0
VERTEX
  8
0
  5
B5C
 10
3191.47
 20
1857.82
 30
0.000000
  70
    32
  0
VERTEX
  8
0
  5
B5D
 10
3191.46
 20
1857.81
 30
0.000000
  70
    32
  0
VERTEX
  8
0
  5
B5E
 10
3191.44
 20
1857.80
 30
0.000000
  70
    32
  0
VERTEX
  8
0
  5
B5F
 10
3191.43
 20
1857.79
 30
0.000000
  70
    32
  0
VERTEX
  8
0
  5
B60
 10
3191.41
 20
1857.79
 30
0.000000
  70
    32
  0
VERTEX
  8
0
  5
B61
 10
3191.40
 20
1857.78
 30
0.000000
  70
    32
  0
VERTEX
  8
0
  5
B62
 10
3191.39
 20
1857.77
 30
0.000000
  70
    32
  0
VERTEX
  8
0
  5
B63
 10
3191.37
 20
1857.76
 30
0.000000
  70
    32
  0
VERTEX
  8
0
  5
B64
 10
3191.36
 20
1857.75
 30
0.000000
  70
    32
  0
VERTEX
  8
0
  5
B65
 10
3191.34
 20
1857.74
 30
0.000000
  70
    32
  0
VERTEX
  8
0
  5
B66
 10
3191.33
 20
1857.73
 30
0.000000
  70
    32
  0
VERTEX
  8
0
  5
B67
 10
3191.31
 20
1857.72
 30
0.000000
  70
    32
  0
VERTEX
  8
0
  5
B68
 10
3191.30
 20
1857.72
 30
0.000000
  70
    32
  0
VERTEX
  8
0
  5
B69
 10
3191.29
 20
1857.71
 30
0.000000
  70
    32
  0
VERTEX
  8
0
  5
B6A
 10
3191.27
 20
1857.70
 30
0.000000
  70
    32
  0
VERTEX
  8
0
  5
B6B
 10
3191.26
 20
1857.69
 30
0.000000
  70
    32
  0
VERTEX
  8
0
  5
B6C
 10
3191.24
 20
1857.68
 30
0.000000
  70
    32
  0
VERTEX
  8
0
  5
B6D
 10
3191.23
 20
1857.67
 30
0.000000
  70
    32
  0
VERTEX
  8
0
  5
B6E
 10
3191.22
 20
1857.66
 30
0.000000
  70
    32
  0
VERTEX
  8
0
  5
B6F
 10
3191.20
 20
1857.65
 30
0.000000
  70
    32
  0
VERTEX
  8
0
  5
B70
 10
3191.19
 20
1857.64
 30
0.000000
  70
    32
  0
VERTEX
  8
0
  5
B71
 10
3191.18
 20
1857.63
 30
0.000000
  70
    32
  0
VERTEX
  8
0
  5
B72
 10
3191.16
 20
1857.62
 30
0.000000
  70
    32
  0
VERTEX
  8
0
  5
B73
 10
3191.15
 20
1857.61
 30
0.000000
  70
    32
  0
VERTEX
  8
0
  5
B74
 10
3191.13
 20
1857.60
 30
0.000000
  70
    32
  0
VERTEX
  8
0
  5
B75
 10
3191.12
 20
1857.59
 30
0.000000
  70
    32
  0
VERTEX
  8
0
  5
B76
 10
3191.11
 20
1857.58
 30
0.000000
  70
    32
  0
VERTEX
  8
0
  5
B77
 10
3191.09
 20
1857.57
 30
0.000000
  70
    32
  0
VERTEX
  8
0
  5
B78
 10
3191.08
 20
1857.56
 30
0.000000
  70
    32
  0
VERTEX
  8
0
  5
B79
 10
3191.07
 20
1857.55
 30
0.000000
  70
    32
  0
VERTEX
  8
0
  5
B7A
 10
3191.05
 20
1857.54
 30
0.000000
  70
    32
  0
VERTEX
  8
0
  5
B7B
 10
3191.04
 20
1857.53
 30
0.000000
  70
    32
  0
VERTEX
  8
0
  5
B7C
 10
3191.03
 20
1857.52
 30
0.000000
  70
    32
  0
VERTEX
  8
0
  5
B7D
 10
3191.01
 20
1857.51
 30
0.000000
  70
    32
  0
VERTEX
  8
0
  5
B7E
 10
3191.00
 20
1857.50
 30
0.000000
  70
    32
  0
VERTEX
  8
0
  5
B7F
 10
3190.99
 20
1857.49
 30
0.000000
  70
    32
  0
VERTEX
  8
0
  5
B80
 10
3190.98
 20
1857.48
 30
0.000000
  70
    32
  0
VERTEX
  8
0
  5
B81
 10
3190.96
 20
1857.47
 30
0.000000
  70
    32
  0
VERTEX
  8
0
  5
B82
 10
3190.95
 20
1857.46
 30
0.000000
  70
    32
  0
VERTEX
  8
0
  5
B83
 10
3190.94
 20
1857.45
 30
0.000000
  70
    32
  0
VERTEX
  8
0
  5
B84
 10
3190.92
 20
1857.43
 30
0.000000
  70
    32
  0
VERTEX
  8
0
  5
B85
 10
3190.91
 20
1857.42
 30
0.000000
  70
    32
  0
VERTEX
  8
0
  5
B86
 10
3190.90
 20
1857.41
 30
0.000000
  70
    32
  0
VERTEX
  8
0
  5
B87
 10
3190.89
 20
1857.40
 30
0.000000
  70
    32
  0
VERTEX
  8
0
  5
B88
 10
3190.87
 20
1857.39
 30
0.000000
  70
    32
  0
VERTEX
  8
0
  5
B89
 10
3190.86
 20
1857.38
 30
0.000000
  70
    32
  0
VERTEX
  8
0
  5
B8A
 10
3190.85
 20
1857.37
 30
0.000000
  70
    32
  0
VERTEX
  8
0
  5
B8B
 10
3190.84
 20
1857.36
 30
0.000000
  70
    32
  0
VERTEX
  8
0
  5
B8C
 10
3190.82
 20
1857.34
 30
0.000000
  70
    32
  0
VERTEX
  8
0
  5
B8D
 10
3190.81
 20
1857.33
 30
0.000000
  70
    32
  0
VERTEX
  8
0
  5
B8E
 10
3190.80
 20
1857.32
 30
0.000000
  70
    32
  0
VERTEX
  8
0
  5
B8F
 10
3190.79
 20
1857.31
 30
0.000000
  70
    32
  0
VERTEX
  8
0
  5
B90
 10
3190.78
 20
1857.30
 30
0.000000
  70
    32
  0
VERTEX
  8
0
  5
B91
 10
3190.76
 20
1857.29
 30
0.000000
  70
    32
  0
VERTEX
  8
0
  5
B92
 10
3190.75
 20
1857.27
 30
0.000000
  70
    32
  0
VERTEX
  8
0
  5
B93
 10
3190.74
 20
1857.26
 30
0.000000
  70
    32
  0
VERTEX
  8
0
  5
B94
 10
3190.73
 20
1857.25
 30
0.000000
  70
    32
  0
VERTEX
  8
0
  5
B95
 10
3190.72
 20
1857.24
 30
0.000000
  70
    32
  0
VERTEX
  8
0
  5
B96
 10
3190.71
 20
1857.23
 30
0.000000
  70
    32
  0
VERTEX
  8
0
  5
B97
 10
3190.69
 20
1857.21
 30
0.000000
  70
    32
  0
VERTEX
  8
0
  5
B98
 10
3190.68
 20
1857.20
 30
0.000000
  70
    32
  0
VERTEX
  8
0
  5
B99
 10
3190.67
 20
1857.19
 30
0.000000
  70
    32
  0
VERTEX
  8
0
  5
B9A
 10
3190.66
 20
1857.18
 30
0.000000
  70
    32
  0
VERTEX
  8
0
  5
B9B
 10
3190.65
 20
1857.17
 30
0.000000
  70
    32
  0
VERTEX
  8
0
  5
B9C
 10
3190.64
 20
1857.15
 30
0.000000
  70
    32
  0
VERTEX
  8
0
  5
B9D
 10
3190.63
 20
1857.14
 30
0.000000
  70
    32
  0
VERTEX
  8
0
  5
B9E
 10
3190.62
 20
1857.13
 30
0.000000
  70
    32
  0
VERTEX
  8
0
  5
B9F
 10
3190.60
 20
1857.11
 30
0.000000
  70
    32
  0
VERTEX
  8
0
  5
BA0
 10
3190.59
 20
1857.10
 30
0.000000
  70
    32
  0
VERTEX
  8
0
  5
BA1
 10
3190.58
 20
1857.09
 30
0.000000
  70
    32
  0
VERTEX
  8
0
  5
BA2
 10
3190.57
 20
1857.08
 30
0.000000
  70
    32
  0
VERTEX
  8
0
  5
BA3
 10
3190.56
 20
1857.06
 30
0.000000
  70
    32
  0
VERTEX
  8
0
  5
BA4
 10
3190.55
 20
1857.05
 30
0.000000
  70
    32
  0
VERTEX
  8
0
  5
BA5
 10
3190.54
 20
1857.04
 30
0.000000
  70
    32
  0
VERTEX
  8
0
  5
BA6
 10
3190.53
 20
1857.02
 30
0.000000
  70
    32
  0
VERTEX
  8
0
  5
BA7
 10
3190.52
 20
1857.01
 30
0.000000
  70
    32
  0
VERTEX
  8
0
  5
BA8
 10
3190.51
 20
1857.00
 30
0.000000
  70
    32
  0
VERTEX
  8
0
  5
BA9
 10
3190.50
 20
1856.98
 30
0.000000
  70
    32
  0
VERTEX
  8
0
  5
BAA
 10
3190.49
 20
1856.97
 30
0.000000
  70
    32
  0
VERTEX
  8
0
  5
BAB
 10
3190.48
 20
1856.96
 30
0.000000
  70
    32
  0
VERTEX
  8
0
  5
BAC
 10
3190.47
 20
1856.94
 30
0.000000
  70
    32
  0
VERTEX
  8
0
  5
BAD
 10
3190.46
 20
1856.93
 30
0.000000
  70
    32
  0
VERTEX
  8
0
  5
BAE
 10
3190.45
 20
1856.92
 30
0.000000
  70
    32
  0
VERTEX
  8
0
  5
BAF
 10
3190.44
 20
1856.90
 30
0.000000
  70
    32
  0
VERTEX
  8
0
  5
BB0
 10
3190.43
 20
1856.89
 30
0.000000
  70
    32
  0
VERTEX
  8
0
  5
BB1
 10
3190.42
 20
1856.88
 30
0.000000
  70
    32
  0
VERTEX
  8
0
  5
BB2
 10
3190.41
 20
1856.86
 30
0.000000
  70
    32
  0
VERTEX
  8
0
  5
BB3
 10
3190.40
 20
1856.85
 30
0.000000
  70
    32
  0
VERTEX
  8
0
  5
BB4
 10
3190.39
 20
1856.83
 30
0.000000
  70
    32
  0
VERTEX
  8
0
  5
BB5
 10
3190.38
 20
1856.82
 30
0.000000
  70
    32
  0
VERTEX
  8
0
  5
BB6
 10
3190.37
 20
1856.81
 30
0.000000
  70
    32
  0
VERTEX
  8
0
  5
BB7
 10
3190.37
 20
1856.79
 30
0.000000
  70
    32
  0
VERTEX
  8
0
  5
BB8
 10
3190.36
 20
1856.78
 30
0.000000
  70
    32
  0
VERTEX
  8
0
  5
BB9
 10
3190.35
 20
1856.76
 30
0.000000
  70
    32
  0
VERTEX
  8
0
  5
BBA
 10
3190.34
 20
1856.75
 30
0.000000
  70
    32
  0
VERTEX
  8
0
  5
BBB
 10
3190.33
 20
1856.73
 30
0.000000
  70
    32
  0
VERTEX
  8
0
  5
BBC
 10
3190.32
 20
1856.72
 30
0.000000
  70
    32
  0
VERTEX
  8
0
  5
BBD
 10
3190.31
 20
1856.70
 30
0.000000
  70
    32
  0
VERTEX
  8
0
  5
BBE
 10
3190.31
 20
1856.69
 30
0.000000
  70
    32
  0
VERTEX
  8
0
  5
BBF
 10
3190.30
 20
1856.67
 30
0.000000
  70
    32
  0
VERTEX
  8
0
  5
BC0
 10
3190.29
 20
1856.66
 30
0.000000
  70
    32
  0
VERTEX
  8
0
  5
BC1
 10
3190.28
 20
1856.65
 30
0.000000
  70
    32
  0
VERTEX
  8
0
  5
BC2
 10
3190.28
 20
1856.63
 30
0.000000
  70
    32
  0
VERTEX
  8
0
  5
BC3
 10
3190.27
 20
1856.62
 30
0.000000
  70
    32
  0
VERTEX
  8
0
  5
BC4
 10
3190.26
 20
1856.60
 30
0.000000
  70
    32
  0
VERTEX
  8
0
  5
BC5
 10
3190.25
 20
1856.59
 30
0.000000
  70
    32
  0
VERTEX
  8
0
  5
BC6
 10
3190.25
 20
1856.57
 30
0.000000
  70
    32
  0
VERTEX
  8
0
  5
BC7
 10
3190.24
 20
1856.55
 30
0.000000
  70
    32
  0
VERTEX
  8
0
  5
BC8
 10
3190.23
 20
1856.54
 30
0.000000
  70
    32
  0
VERTEX
  8
0
  5
BC9
 10
3190.22
 20
1856.52
 30
0.000000
  70
    32
  0
VERTEX
  8
0
  5
BCA
 10
3190.22
 20
1856.51
 30
0.000000
  70
    32
  0
VERTEX
  8
0
  5
BCB
 10
3190.21
 20
1856.49
 30
0.000000
  70
    32
  0
VERTEX
  8
0
  5
BCC
 10
3190.20
 20
1856.48
 30
0.000000
  70
    32
  0
VERTEX
  8
0
  5
BCD
 10
3190.20
 20
1856.46
 30
0.000000
  70
    32
  0
VERTEX
  8
0
  5
BCE
 10
3190.19
 20
1856.45
 30
0.000000
  70
    32
  0
VERTEX
  8
0
  5
BCF
 10
3190.19
 20
1856.43
 30
0.000000
  70
    32
  0
VERTEX
  8
0
  5
BD0
 10
3190.18
 20
1856.42
 30
0.000000
  70
    32
  0
VERTEX
  8
0
  5
BD1
 10
3190.17
 20
1856.40
 30
0.000000
  70
    32
  0
VERTEX
  8
0
  5
BD2
 10
3190.17
 20
1856.38
 30
0.000000
  70
    32
  0
VERTEX
  8
0
  5
BD3
 10
3190.16
 20
1856.37
 30
0.000000
  70
    32
  0
VERTEX
  8
0
  5
BD4
 10
3190.16
 20
1856.35
 30
0.000000
  70
    32
  0
VERTEX
  8
0
  5
BD5
 10
3190.15
 20
1856.34
 30
0.000000
  70
    32
  0
VERTEX
  8
0
  5
BD6
 10
3190.15
 20
1856.32
 30
0.000000
  70
    32
  0
VERTEX
  8
0
  5
BD7
 10
3190.14
 20
1856.30
 30
0.000000
  70
    32
  0
VERTEX
  8
0
  5
BD8
 10
3190.14
 20
1856.29
 30
0.000000
  70
    32
  0
VERTEX
  8
0
  5
BD9
 10
3190.13
 20
1856.27
 30
0.000000
  70
    32
  0
VERTEX
  8
0
  5
BDA
 10
3190.13
 20
1856.26
 30
0.000000
  70
    32
  0
VERTEX
  8
0
  5
BDB
 10
3190.12
 20
1856.24
 30
0.000000
  70
    32
  0
VERTEX
  8
0
  5
BDC
 10
3190.12
 20
1856.22
 30
0.000000
  70
    32
  0
VERTEX
  8
0
  5
BDD
 10
3190.11
 20
1856.21
 30
0.000000
  70
    32
  0
VERTEX
  8
0
  5
BDE
 10
3190.11
 20
1856.19
 30
0.000000
  70
    32
  0
VERTEX
  8
0
  5
BDF
 10
3190.10
 20
1856.18
 30
0.000000
  70
    32
  0
VERTEX
  8
0
  5
BE0
 10
3190.10
 20
1856.16
 30
0.000000
  70
    32
  0
VERTEX
  8
0
  5
BE1
 10
3190.10
 20
1856.14
 30
0.000000
  70
    32
  0
VERTEX
  8
0
  5
BE2
 10
3190.09
 20
1856.13
 30
0.000000
  70
    32
  0
VERTEX
  8
0
  5
BE3
 10
3190.09
 20
1856.11
 30
0.000000
  70
    32
  0
VERTEX
  8
0
  5
BE4
 10
3190.08
 20
1856.09
 30
0.000000
  70
    32
  0
VERTEX
  8
0
  5
BE5
 10
3190.08
 20
1856.08
 30
0.000000
  70
    32
  0
VERTEX
  8
0
  5
BE6
 10
3190.08
 20
1856.06
 30
0.000000
  70
    32
  0
VERTEX
  8
0
  5
BE7
 10
3190.08
 20
1856.04
 30
0.000000
  70
    32
  0
VERTEX
  8
0
  5
BE8
 10
3190.07
 20
1856.03
 30
0.000000
  70
    32
  0
VERTEX
  8
0
  5
BE9
 10
3190.07
 20
1856.01
 30
0.000000
  70
    32
  0
VERTEX
  8
0
  5
BEA
 10
3190.07
 20
1855.99
 30
0.000000
  70
    32
  0
VERTEX
  8
0
  5
BEB
 10
3190.06
 20
1855.98
 30
0.000000
  70
    32
  0
VERTEX
  8
0
  5
BEC
 10
3190.06
 20
1855.96
 30
0.000000
  70
    32
  0
VERTEX
  8
0
  5
BED
 10
3190.06
 20
1855.94
 30
0.000000
  70
    32
  0
VERTEX
  8
0
  5
BEE
 10
3190.06
 20
1855.93
 30
0.000000
  70
    32
  0
VERTEX
  8
0
  5
BEF
 10
3190.06
 20
1855.91
 30
0.000000
  70
    32
  0
VERTEX
  8
0
  5
BF0
 10
3190.05
 20
1855.89
 30
0.000000
  70
    32
  0
VERTEX
  8
0
  5
BF1
 10
3190.05
 20
1855.88
 30
0.000000
  70
    32
  0
VERTEX
  8
0
  5
BF2
 10
3190.05
 20
1855.86
 30
0.000000
  70
    32
  0
VERTEX
  8
0
  5
BF3
 10
3190.05
 20
1855.84
 30
0.000000
  70
    32
  0
VERTEX
  8
0
  5
BF4
 10
3190.05
 20
1855.83
 30
0.000000
  70
    32
  0
VERTEX
  8
0
  5
BF5
 10
3190.05
 20
1855.81
 30
0.000000
  70
    32
  0
VERTEX
  8
0
  5
BF6
 10
3190.05
 20
1855.79
 30
0.000000
  70
    32
  0
VERTEX
  8
0
  5
BF7
 10
3190.05
 20
1855.78
 30
0.000000
  70
    32
  0
VERTEX
  8
0
  5
BF8
 10
3190.05
 20
1855.76
 30
0.000000
  70
    32
  0
VERTEX
  8
0
  5
BF9
 10
3190.05
 20
1855.74
 30
0.000000
  70
    32
  0
VERTEX
  8
0
  5
BFA
 10
3190.05
 20
1855.73
 30
0.000000
  70
    32
  0
VERTEX
  8
0
  5
BFB
 10
3190.05
 20
1855.71
 30
0.000000
  70
    32
  0
SEQEND
  8
0
  5
BFC
  0
POLYLINE
  8
0
  5
BFD
  66
     1
 10
0.000000
 20
0.000000
 30
0.000000
  70
     8
  0
VERTEX
  8
0
  5
BFE
 10
3186.18
 20
1844.12
 30
0.000000
  70
    32
  0
VERTEX
  8
0
  5
BFF
 10
3186.18
 20
1844.10
 30
0.000000
  70
    32
  0
VERTEX
  8
0
  5
C00
 10
3186.18
 20
1844.08
 30
0.000000
  70
    32
  0
VERTEX
  8
0
  5
C01
 10
3186.19
 20
1844.06
 30
0.000000
  70
    32
  0
VERTEX
  8
0
  5
C02
 10
3186.19
 20
1844.04
 30
0.000000
  70
    32
  0
VERTEX
  8
0
  5
C03
 10
3186.19
 20
1844.02
 30
0.000000
  70
    32
  0
VERTEX
  8
0
  5
C04
 10
3186.20
 20
1844.01
 30
0.000000
  70
    32
  0
VERTEX
  8
0
  5
C05
 10
3186.20
 20
1843.99
 30
0.000000
  70
    32
  0
VERTEX
  8
0
  5
C06
 10
3186.21
 20
1843.97
 30
0.000000
  70
    32
  0
VERTEX
  8
0
  5
C07
 10
3186.21
 20
1843.95
 30
0.000000
  70
    32
  0
VERTEX
  8
0
  5
C08
 10
3186.21
 20
1843.93
 30
0.000000
  70
    32
  0
VERTEX
  8
0
  5
C09
 10
3186.22
 20
1843.91
 30
0.000000
  70
    32
  0
VERTEX
  8
0
  5
C0A
 10
3186.22
 20
1843.89
 30
0.000000
  70
    32
  0
VERTEX
  8
0
  5
C0B
 10
3186.22
 20
1843.87
 30
0.000000
  70
    32
  0
VERTEX
  8
0
  5
C0C
 10
3186.23
 20
1843.85
 30
0.000000
  70
    32
  0
VERTEX
  8
0
  5
C0D
 10
3186.23
 20
1843.83
 30
0.000000
  70
    32
  0
VERTEX
  8
0
  5
C0E
 10
3186.24
 20
1843.82
 30
0.000000
  70
    32
  0
VERTEX
  8
0
  5
C0F
 10
3186.24
 20
1843.80
 30
0.000000
  70
    32
  0
VERTEX
  8
0
  5
C10
 10
3186.25
 20
1843.78
 30
0.000000
  70
    32
  0
VERTEX
  8
0
  5
C11
 10
3186.25
 20
1843.76
 30
0.000000
  70
    32
  0
VERTEX
  8
0
  5
C12
 10
3186.25
 20
1843.74
 30
0.000000
  70
    32
  0
VERTEX
  8
0
  5
C13
 10
3186.26
 20
1843.72
 30
0.000000
  70
    32
  0
VERTEX
  8
0
  5
C14
 10
3186.26
 20
1843.70
 30
0.000000
  70
    32
  0
VERTEX
  8
0
  5
C15
 10
3186.27
 20
1843.68
 30
0.000000
  70
    32
  0
VERTEX
  8
0
  5
C16
 10
3186.27
 20
1843.66
 30
0.000000
  70
    32
  0
VERTEX
  8
0
  5
C17
 10
3186.28
 20
1843.65
 30
0.000000
  70
    32
  0
VERTEX
  8
0
  5
C18
 10
3186.28
 20
1843.63
 30
0.000000
  70
    32
  0
VERTEX
  8
0
  5
C19
 10
3186.29
 20
1843.61
 30
0.000000
  70
    32
  0
VERTEX
  8
0
  5
C1A
 10
3186.29
 20
1843.59
 30
0.000000
  70
    32
  0
VERTEX
  8
0
  5
C1B
 10
3186.30
 20
1843.57
 30
0.000000
  70
    32
  0
VERTEX
  8
0
  5
C1C
 10
3186.30
 20
1843.55
 30
0.000000
  70
    32
  0
VERTEX
  8
0
  5
C1D
 10
3186.31
 20
1843.53
 30
0.000000
  70
    32
  0
VERTEX
  8
0
  5
C1E
 10
3186.31
 20
1843.51
 30
0.000000
  70
    32
  0
VERTEX
  8
0
  5
C1F
 10
3186.32
 20
1843.50
 30
0.000000
  70
    32
  0
VERTEX
  8
0
  5
C20
 10
3186.32
 20
1843.48
 30
0.000000
  70
    32
  0
VERTEX
  8
0
  5
C21
 10
3186.33
 20
1843.46
 30
0.000000
  70
    32
  0
VERTEX
  8
0
  5
C22
 10
3186.33
 20
1843.44
 30
0.000000
  70
    32
  0
VERTEX
  8
0
  5
C23
 10
3186.34
 20
1843.42
 30
0.000000
  70
    32
  0
VERTEX
  8
0
  5
C24
 10
3186.34
 20
1843.40
 30
0.000000
  70
    32
  0
VERTEX
  8
0
  5
C25
 10
3186.35
 20
1843.38
 30
0.000000
  70
    32
  0
VERTEX
  8
0
  5
C26
 10
3186.35
 20
1843.36
 30
0.000000
  70
    32
  0
VERTEX
  8
0
  5
C27
 10
3186.36
 20
1843.35
 30
0.000000
  70
    32
  0
VERTEX
  8
0
  5
C28
 10
3186.36
 20
1843.33
 30
0.000000
  70
    32
  0
VERTEX
  8
0
  5
C29
 10
3186.37
 20
1843.31
 30
0.000000
  70
    32
  0
VERTEX
  8
0
  5
C2A
 10
3186.37
 20
1843.29
 30
0.000000
  70
    32
  0
VERTEX
  8
0
  5
C2B
 10
3186.38
 20
1843.27
 30
0.000000
  70
    32
  0
VERTEX
  8
0
  5
C2C
 10
3186.38
 20
1843.25
 30
0.000000
  70
    32
  0
VERTEX
  8
0
  5
C2D
 10
3186.39
 20
1843.23
 30
0.000000
  70
    32
  0
VERTEX
  8
0
  5
C2E
 10
3186.40
 20
1843.21
 30
0.000000
  70
    32
  0
VERTEX
  8
0
  5
C2F
 10
3186.40
 20
1843.20
 30
0.000000
  70
    32
  0
VERTEX
  8
0
  5
C30
 10
3186.41
 20
1843.18
 30
0.000000
  70
    32
  0
VERTEX
  8
0
  5
C31
 10
3186.41
 20
1843.16
 30
0.000000
  70
    32
  0
VERTEX
  8
0
  5
C32
 10
3186.42
 20
1843.14
 30
0.000000
  70
    32
  0
VERTEX
  8
0
  5
C33
 10
3186.42
 20
1843.12
 30
0.000000
  70
    32
  0
VERTEX
  8
0
  5
C34
 10
3186.43
 20
1843.10
 30
0.000000
  70
    32
  0
VERTEX
  8
0
  5
C35
 10
3186.44
 20
1843.08
 30
0.000000
  70
    32
  0
VERTEX
  8
0
  5
C36
 10
3186.44
 20
1843.07
 30
0.000000
  70
    32
  0
VERTEX
  8
0
  5
C37
 10
3186.45
 20
1843.05
 30
0.000000
  70
    32
  0
VERTEX
  8
0
  5
C38
 10
3186.45
 20
1843.03
 30
0.000000
  70
    32
  0
VERTEX
  8
0
  5
C39
 10
3186.46
 20
1843.01
 30
0.000000
  70
    32
  0
VERTEX
  8
0
  5
C3A
 10
3186.47
 20
1842.99
 30
0.000000
  70
    32
  0
VERTEX
  8
0
  5
C3B
 10
3186.47
 20
1842.97
 30
0.000000
  70
    32
  0
VERTEX
  8
0
  5
C3C
 10
3186.48
 20
1842.96
 30
0.000000
  70
    32
  0
VERTEX
  8
0
  5
C3D
 10
3186.48
 20
1842.94
 30
0.000000
  70
    32
  0
VERTEX
  8
0
  5
C3E
 10
3186.49
 20
1842.92
 30
0.000000
  70
    32
  0
VERTEX
  8
0
  5
C3F
 10
3186.50
 20
1842.90
 30
0.000000
  70
    32
  0
VERTEX
  8
0
  5
C40
 10
3186.50
 20
1842.88
 30
0.000000
  70
    32
  0
VERTEX
  8
0
  5
C41
 10
3186.51
 20
1842.86
 30
0.000000
  70
    32
  0
VERTEX
  8
0
  5
C42
 10
3186.52
 20
1842.85
 30
0.000000
  70
    32
  0
VERTEX
  8
0
  5
C43
 10
3186.52
 20
1842.83
 30
0.000000
  70
    32
  0
VERTEX
  8
0
  5
C44
 10
3186.53
 20
1842.81
 30
0.000000
  70
    32
  0
VERTEX
  8
0
  5
C45
 10
3186.54
 20
1842.79
 30
0.000000
  70
    32
  0
VERTEX
  8
0
  5
C46
 10
3186.54
 20
1842.77
 30
0.000000
  70
    32
  0
VERTEX
  8
0
  5
C47
 10
3186.55
 20
1842.75
 30
0.000000
  70
    32
  0
VERTEX
  8
0
  5
C48
 10
3186.56
 20
1842.74
 30
0.000000
  70
    32
  0
VERTEX
  8
0
  5
C49
 10
3186.56
 20
1842.72
 30
0.000000
  70
    32
  0
VERTEX
  8
0
  5
C4A
 10
3186.57
 20
1842.70
 30
0.000000
  70
    32
  0
VERTEX
  8
0
  5
C4B
 10
3186.58
 20
1842.68
 30
0.000000
  70
    32
  0
VERTEX
  8
0
  5
C4C
 10
3186.58
 20
1842.66
 30
0.000000
  70
    32
  0
VERTEX
  8
0
  5
C4D
 10
3186.59
 20
1842.64
 30
0.000000
  70
    32
  0
VERTEX
  8
0
  5
C4E
 10
3186.60
 20
1842.63
 30
0.000000
  70
    32
  0
VERTEX
  8
0
  5
C4F
 10
3186.60
 20
1842.61
 30
0.000000
  70
    32
  0
VERTEX
  8
0
  5
C50
 10
3186.61
 20
1842.59
 30
0.000000
  70
    32
  0
VERTEX
  8
0
  5
C51
 10
3186.62
 20
1842.57
 30
0.000000
  70
    32
  0
VERTEX
  8
0
  5
C52
 10
3186.63
 20
1842.55
 30
0.000000
  70
    32
  0
VERTEX
  8
0
  5
C53
 10
3186.63
 20
1842.54
 30
0.000000
  70
    32
  0
VERTEX
  8
0
  5
C54
 10
3186.64
 20
1842.52
 30
0.000000
  70
    32
  0
VERTEX
  8
0
  5
C55
 10
3186.65
 20
1842.50
 30
0.000000
  70
    32
  0
VERTEX
  8
0
  5
C56
 10
3186.65
 20
1842.48
 30
0.000000
  70
    32
  0
VERTEX
  8
0
  5
C57
 10
3186.66
 20
1842.46
 30
0.000000
  70
    32
  0
VERTEX
  8
0
  5
C58
 10
3186.67
 20
1842.45
 30
0.000000
  70
    32
  0
VERTEX
  8
0
  5
C59
 10
3186.68
 20
1842.43
 30
0.000000
  70
    32
  0
VERTEX
  8
0
  5
C5A
 10
3186.68
 20
1842.41
 30
0.000000
  70
    32
  0
VERTEX
  8
0
  5
C5B
 10
3186.69
 20
1842.39
 30
0.000000
  70
    32
  0
VERTEX
  8
0
  5
C5C
 10
3186.70
 20
1842.37
 30
0.000000
  70
    32
  0
VERTEX
  8
0
  5
C5D
 10
3186.71
 20
1842.36
 30
0.000000
  70
    32
  0
VERTEX
  8
0
  5
C5E
 10
3186.71
 20
1842.34
 30
0.000000
  70
    32
  0
VERTEX
  8
0
  5
C5F
 10
3186.72
 20
1842.32
 30
0.000000
  70
    32
  0
VERTEX
  8
0
  5
C60
 10
3186.73
 20
1842.30
 30
0.000000
  70
    32
  0
VERTEX
  8
0
  5
C61
 10
3186.74
 20
1842.28
 30
0.000000
  70
    32
  0
VERTEX
  8
0
  5
C62
 10
3186.74
 20
1842.27
 30
0.000000
  70
    32
  0
VERTEX
  8
0
  5
C63
 10
3186.75
 20
1842.25
 30
0.000000
  70
    32
  0
VERTEX
  8
0
  5
C64
 10
3186.76
 20
1842.23
 30
0.000000
  70
    32
  0
VERTEX
  8
0
  5
C65
 10
3186.77
 20
1842.21
 30
0.000000
  70
    32
  0
VERTEX
  8
0
  5
C66
 10
3186.78
 20
1842.20
 30
0.000000
  70
    32
  0
VERTEX
  8
0
  5
C67
 10
3186.78
 20
1842.18
 30
0.000000
  70
    32
  0
VERTEX
  8
0
  5
C68
 10
3186.79
 20
1842.16
 30
0.000000
  70
    32
  0
VERTEX
  8
0
  5
C69
 10
3186.80
 20
1842.14
 30
0.000000
  70
    32
  0
VERTEX
  8
0
  5
C6A
 10
3186.81
 20
1842.12
 30
0.000000
  70
    32
  0
VERTEX
  8
0
  5
C6B
 10
3186.82
 20
1842.11
 30
0.000000
  70
    32
  0
VERTEX
  8
0
  5
C6C
 10
3186.82
 20
1842.09
 30
0.000000
  70
    32
  0
VERTEX
  8
0
  5
C6D
 10
3186.83
 20
1842.07
 30
0.000000
  70
    32
  0
VERTEX
  8
0
  5
C6E
 10
3186.84
 20
1842.05
 30
0.000000
  70
    32
  0
VERTEX
  8
0
  5
C6F
 10
3186.85
 20
1842.04
 30
0.000000
  70
    32
  0
VERTEX
  8
0
  5
C70
 10
3186.86
 20
1842.02
 30
0.000000
  70
    32
  0
VERTEX
  8
0
  5
C71
 10
3186.87
 20
1842.00
 30
0.000000
  70
    32
  0
VERTEX
  8
0
  5
C72
 10
3186.87
 20
1841.98
 30
0.000000
  70
    32
  0
VERTEX
  8
0
  5
C73
 10
3186.88
 20
1841.97
 30
0.000000
  70
    32
  0
VERTEX
  8
0
  5
C74
 10
3186.89
 20
1841.95
 30
0.000000
  70
    32
  0
VERTEX
  8
0
  5
C75
 10
3186.90
 20
1841.93
 30
0.000000
  70
    32
  0
VERTEX
  8
0
  5
C76
 10
3186.91
 20
1841.91
 30
0.000000
  70
    32
  0
VERTEX
  8
0
  5
C77
 10
3186.92
 20
1841.90
 30
0.000000
  70
    32
  0
VERTEX
  8
0
  5
C78
 10
3186.92
 20
1841.88
 30
0.000000
  70
    32
  0
VERTEX
  8
0
  5
C79
 10
3186.93
 20
1841.86
 30
0.000000
  70
    32
  0
VERTEX
  8
0
  5
C7A
 10
3186.94
 20
1841.84
 30
0.000000
  70
    32
  0
VERTEX
  8
0
  5
C7B
 10
3186.95
 20
1841.83
 30
0.000000
  70
    32
  0
VERTEX
  8
0
  5
C7C
 10
3186.96
 20
1841.81
 30
0.000000
  70
    32
  0
VERTEX
  8
0
  5
C7D
 10
3186.97
 20
1841.79
 30
0.000000
  70
    32
  0
VERTEX
  8
0
  5
C7E
 10
3186.98
 20
1841.77
 30
0.000000
  70
    32
  0
VERTEX
  8
0
  5
C7F
 10
3186.99
 20
1841.76
 30
0.000000
  70
    32
  0
VERTEX
  8
0
  5
C80
 10
3186.99
 20
1841.74
 30
0.000000
  70
    32
  0
VERTEX
  8
0
  5
C81
 10
3187.00
 20
1841.72
 30
0.000000
  70
    32
  0
VERTEX
  8
0
  5
C82
 10
3187.01
 20
1841.71
 30
0.000000
  70
    32
  0
VERTEX
  8
0
  5
C83
 10
3187.02
 20
1841.69
 30
0.000000
  70
    32
  0
VERTEX
  8
0
  5
C84
 10
3187.03
 20
1841.67
 30
0.000000
  70
    32
  0
VERTEX
  8
0
  5
C85
 10
3187.04
 20
1841.65
 30
0.000000
  70
    32
  0
VERTEX
  8
0
  5
C86
 10
3187.05
 20
1841.64
 30
0.000000
  70
    32
  0
VERTEX
  8
0
  5
C87
 10
3187.06
 20
1841.62
 30
0.000000
  70
    32
  0
VERTEX
  8
0
  5
C88
 10
3187.07
 20
1841.60
 30
0.000000
  70
    32
  0
VERTEX
  8
0
  5
C89
 10
3187.08
 20
1841.59
 30
0.000000
  70
    32
  0
VERTEX
  8
0
  5
C8A
 10
3187.09
 20
1841.57
 30
0.000000
  70
    32
  0
VERTEX
  8
0
  5
C8B
 10
3187.09
 20
1841.55
 30
0.000000
  70
    32
  0
VERTEX
  8
0
  5
C8C
 10
3187.10
 20
1841.53
 30
0.000000
  70
    32
  0
VERTEX
  8
0
  5
C8D
 10
3187.11
 20
1841.52
 30
0.000000
  70
    32
  0
VERTEX
  8
0
  5
C8E
 10
3187.12
 20
1841.50
 30
0.000000
  70
    32
  0
VERTEX
  8
0
  5
C8F
 10
3187.13
 20
1841.48
 30
0.000000
  70
    32
  0
VERTEX
  8
0
  5
C90
 10
3187.14
 20
1841.47
 30
0.000000
  70
    32
  0
VERTEX
  8
0
  5
C91
 10
3187.15
 20
1841.45
 30
0.000000
  70
    32
  0
VERTEX
  8
0
  5
C92
 10
3187.16
 20
1841.43
 30
0.000000
  70
    32
  0
VERTEX
  8
0
  5
C93
 10
3187.17
 20
1841.42
 30
0.000000
  70
    32
  0
VERTEX
  8
0
  5
C94
 10
3187.18
 20
1841.40
 30
0.000000
  70
    32
  0
VERTEX
  8
0
  5
C95
 10
3187.19
 20
1841.38
 30
0.000000
  70
    32
  0
VERTEX
  8
0
  5
C96
 10
3187.20
 20
1841.36
 30
0.000000
  70
    32
  0
VERTEX
  8
0
  5
C97
 10
3187.21
 20
1841.35
 30
0.000000
  70
    32
  0
VERTEX
  8
0
  5
C98
 10
3187.22
 20
1841.33
 30
0.000000
  70
    32
  0
VERTEX
  8
0
  5
C99
 10
3187.23
 20
1841.31
 30
0.000000
  70
    32
  0
VERTEX
  8
0
  5
C9A
 10
3187.24
 20
1841.30
 30
0.000000
  70
    32
  0
VERTEX
  8
0
  5
C9B
 10
3187.25
 20
1841.28
 30
0.000000
  70
    32
  0
VERTEX
  8
0
  5
C9C
 10
3187.26
 20
1841.26
 30
0.000000
  70
    32
  0
VERTEX
  8
0
  5
C9D
 10
3187.27
 20
1841.25
 30
0.000000
  70
    32
  0
SEQEND
  8
0
  5
C9E
  0
ENDSEC
  0
EOF
